ISO-10303-21;
HEADER;
/* Generated by software containing ST-Developer
 * from STEP Tools, Inc. (www.steptools.com) 
 */

FILE_DESCRIPTION(
/* description */ (''),
/* implementation_level */ '2;1');

FILE_NAME(
/* name */ 'BFM Spigot 100mm v3.step',
/* time_stamp */ '2023-12-15T10:50:58+13:00',
/* author */ (''),
/* organization */ (''),
/* preprocessor_version */ 'ST-DEVELOPER v20',
/* originating_system */ 'Autodesk Translation Framework v12.14.0.127',

/* authorisation */ '');

FILE_SCHEMA (('AUTOMOTIVE_DESIGN { 1 0 10303 214 3 1 1 }'));
ENDSEC;

DATA;
#10=MECHANICAL_DESIGN_GEOMETRIC_PRESENTATION_REPRESENTATION('',(#13),#545);
#11=SHAPE_REPRESENTATION_RELATIONSHIP('SRR','None',#552,#12);
#12=ADVANCED_BREP_SHAPE_REPRESENTATION('',(#14),#544);
#13=STYLED_ITEM('',(#561),#14);
#14=MANIFOLD_SOLID_BREP('Body1',#299);
#15=FACE_BOUND('',#53,.T.);
#16=FACE_BOUND('',#65,.T.);
#17=PLANE('',#329);
#18=PLANE('',#352);
#19=CYLINDRICAL_SURFACE('',#317,61.);
#20=CYLINDRICAL_SURFACE('',#321,56.5428932188133);
#21=CYLINDRICAL_SURFACE('',#325,61.);
#22=CYLINDRICAL_SURFACE('',#336,63.);
#23=CYLINDRICAL_SURFACE('',#343,63.);
#24=CYLINDRICAL_SURFACE('',#347,58.5428932188134);
#25=FACE_OUTER_BOUND('',#45,.T.);
#26=FACE_OUTER_BOUND('',#46,.T.);
#27=FACE_OUTER_BOUND('',#47,.T.);
#28=FACE_OUTER_BOUND('',#48,.T.);
#29=FACE_OUTER_BOUND('',#49,.T.);
#30=FACE_OUTER_BOUND('',#50,.T.);
#31=FACE_OUTER_BOUND('',#51,.T.);
#32=FACE_OUTER_BOUND('',#52,.T.);
#33=FACE_OUTER_BOUND('',#54,.T.);
#34=FACE_OUTER_BOUND('',#55,.T.);
#35=FACE_OUTER_BOUND('',#56,.T.);
#36=FACE_OUTER_BOUND('',#57,.T.);
#37=FACE_OUTER_BOUND('',#58,.T.);
#38=FACE_OUTER_BOUND('',#59,.T.);
#39=FACE_OUTER_BOUND('',#60,.T.);
#40=FACE_OUTER_BOUND('',#61,.T.);
#41=FACE_OUTER_BOUND('',#62,.T.);
#42=FACE_OUTER_BOUND('',#63,.T.);
#43=FACE_OUTER_BOUND('',#64,.T.);
#44=FACE_OUTER_BOUND('',#66,.T.);
#45=EDGE_LOOP('',(#187,#188,#189,#190,#191));
#46=EDGE_LOOP('',(#192,#193,#194,#195));
#47=EDGE_LOOP('',(#196,#197,#198,#199));
#48=EDGE_LOOP('',(#200,#201,#202,#203));
#49=EDGE_LOOP('',(#204,#205,#206,#207));
#50=EDGE_LOOP('',(#208,#209,#210,#211));
#51=EDGE_LOOP('',(#212,#213,#214,#215));
#52=EDGE_LOOP('',(#216));
#53=EDGE_LOOP('',(#217));
#54=EDGE_LOOP('',(#218,#219,#220,#221,#222));
#55=EDGE_LOOP('',(#223,#224,#225,#226,#227));
#56=EDGE_LOOP('',(#228,#229,#230,#231));
#57=EDGE_LOOP('',(#232,#233,#234,#235,#236));
#58=EDGE_LOOP('',(#237,#238,#239,#240));
#59=EDGE_LOOP('',(#241,#242,#243,#244));
#60=EDGE_LOOP('',(#245,#246,#247,#248));
#61=EDGE_LOOP('',(#249,#250,#251,#252));
#62=EDGE_LOOP('',(#253,#254,#255,#256));
#63=EDGE_LOOP('',(#257,#258,#259,#260));
#64=EDGE_LOOP('',(#261));
#65=EDGE_LOOP('',(#262));
#66=EDGE_LOOP('',(#263,#264,#265,#266));
#67=LINE('',#465,#85);
#68=LINE('',#470,#86);
#69=LINE('',#474,#87);
#70=LINE('',#478,#88);
#71=LINE('',#482,#89);
#72=LINE('',#486,#90);
#73=LINE('',#490,#91);
#74=LINE('',#497,#92);
#75=LINE('',#503,#93);
#76=LINE('',#509,#94);
#77=LINE('',#513,#95);
#78=LINE('',#518,#96);
#79=LINE('',#522,#97);
#80=LINE('',#525,#98);
#81=LINE('',#530,#99);
#82=LINE('',#532,#100);
#83=LINE('',#535,#101);
#84=LINE('',#541,#102);
#85=VECTOR('',#361,59.0643398282201);
#86=VECTOR('',#368,61.);
#87=VECTOR('',#373,58.7714466094066);
#88=VECTOR('',#378,56.5428932188133);
#89=VECTOR('',#383,58.7714466094066);
#90=VECTOR('',#388,61.);
#91=VECTOR('',#393,59.3572330470336);
#92=VECTOR('',#402,49.4129524620215);
#93=VECTOR('',#409,58.0125631329235);
#94=VECTOR('',#416,63.);
#95=VECTOR('',#421,49.2489721510659);
#96=VECTOR('',#428,60.7714466094067);
#97=VECTOR('',#433,63.);
#98=VECTOR('',#436,60.7714466094067);
#99=VECTOR('',#443,58.5428932188134);
#100=VECTOR('',#446,60.7714466094067);
#101=VECTOR('',#449,60.7714466094067);
#102=VECTOR('',#458,51.3605465634909);
#103=CIRCLE('',#314,57.1286796564403);
#104=CIRCLE('',#315,61.);
#105=CIRCLE('',#316,57.1286796564403);
#106=CIRCLE('',#318,61.);
#107=CIRCLE('',#320,56.5428932188133);
#108=CIRCLE('',#322,56.5428932188133);
#109=CIRCLE('',#324,61.);
#110=CIRCLE('',#326,61.);
#111=CIRCLE('',#328,57.7144660940673);
#112=CIRCLE('',#330,50.8252196914203);
#113=CIRCLE('',#332,48.0006852326228);
#114=CIRCLE('',#333,48.0006852326228);
#115=CIRCLE('',#335,58.5428932188134);
#116=CIRCLE('',#337,63.);
#117=CIRCLE('',#338,63.);
#118=CIRCLE('',#340,49.9979443021319);
#119=CIRCLE('',#342,63.);
#120=CIRCLE('',#344,63.);
#121=CIRCLE('',#346,58.5428932188134);
#122=CIRCLE('',#348,58.5428932188134);
#123=CIRCLE('',#351,58.5428932188134);
#124=CIRCLE('',#353,52.72314882485);
#125=VERTEX_POINT('',#461);
#126=VERTEX_POINT('',#462);
#127=VERTEX_POINT('',#464);
#128=VERTEX_POINT('',#469);
#129=VERTEX_POINT('',#473);
#130=VERTEX_POINT('',#477);
#131=VERTEX_POINT('',#481);
#132=VERTEX_POINT('',#485);
#133=VERTEX_POINT('',#489);
#134=VERTEX_POINT('',#493);
#135=VERTEX_POINT('',#496);
#136=VERTEX_POINT('',#498);
#137=VERTEX_POINT('',#502);
#138=VERTEX_POINT('',#506);
#139=VERTEX_POINT('',#508);
#140=VERTEX_POINT('',#512);
#141=VERTEX_POINT('',#516);
#142=VERTEX_POINT('',#520);
#143=VERTEX_POINT('',#524);
#144=VERTEX_POINT('',#528);
#145=VERTEX_POINT('',#534);
#146=VERTEX_POINT('',#538);
#147=EDGE_CURVE('',#125,#126,#103,.T.);
#148=EDGE_CURVE('',#126,#127,#67,.T.);
#149=EDGE_CURVE('',#127,#127,#104,.T.);
#150=EDGE_CURVE('',#126,#125,#105,.T.);
#151=EDGE_CURVE('',#127,#128,#68,.T.);
#152=EDGE_CURVE('',#128,#128,#106,.T.);
#153=EDGE_CURVE('',#128,#129,#69,.T.);
#154=EDGE_CURVE('',#129,#129,#107,.T.);
#155=EDGE_CURVE('',#129,#130,#70,.T.);
#156=EDGE_CURVE('',#130,#130,#108,.T.);
#157=EDGE_CURVE('',#130,#131,#71,.T.);
#158=EDGE_CURVE('',#131,#131,#109,.T.);
#159=EDGE_CURVE('',#131,#132,#72,.T.);
#160=EDGE_CURVE('',#132,#132,#110,.T.);
#161=EDGE_CURVE('',#132,#133,#73,.T.);
#162=EDGE_CURVE('',#133,#133,#111,.T.);
#163=EDGE_CURVE('',#134,#134,#112,.T.);
#164=EDGE_CURVE('',#134,#135,#74,.T.);
#165=EDGE_CURVE('',#136,#135,#113,.T.);
#166=EDGE_CURVE('',#135,#136,#114,.T.);
#167=EDGE_CURVE('',#125,#137,#75,.T.);
#168=EDGE_CURVE('',#137,#137,#115,.T.);
#169=EDGE_CURVE('',#138,#138,#116,.T.);
#170=EDGE_CURVE('',#138,#139,#76,.T.);
#171=EDGE_CURVE('',#139,#139,#117,.T.);
#172=EDGE_CURVE('',#136,#140,#77,.T.);
#173=EDGE_CURVE('',#140,#140,#118,.T.);
#174=EDGE_CURVE('',#141,#141,#119,.T.);
#175=EDGE_CURVE('',#141,#137,#78,.T.);
#176=EDGE_CURVE('',#142,#142,#120,.T.);
#177=EDGE_CURVE('',#142,#141,#79,.T.);
#178=EDGE_CURVE('',#142,#143,#80,.T.);
#179=EDGE_CURVE('',#143,#143,#121,.T.);
#180=EDGE_CURVE('',#144,#144,#122,.T.);
#181=EDGE_CURVE('',#144,#143,#81,.T.);
#182=EDGE_CURVE('',#139,#144,#82,.T.);
#183=EDGE_CURVE('',#138,#145,#83,.T.);
#184=EDGE_CURVE('',#145,#145,#123,.T.);
#185=EDGE_CURVE('',#146,#146,#124,.T.);
#186=EDGE_CURVE('',#146,#140,#84,.T.);
#187=ORIENTED_EDGE('',*,*,#147,.T.);
#188=ORIENTED_EDGE('',*,*,#148,.T.);
#189=ORIENTED_EDGE('',*,*,#149,.F.);
#190=ORIENTED_EDGE('',*,*,#148,.F.);
#191=ORIENTED_EDGE('',*,*,#150,.T.);
#192=ORIENTED_EDGE('',*,*,#149,.T.);
#193=ORIENTED_EDGE('',*,*,#151,.T.);
#194=ORIENTED_EDGE('',*,*,#152,.F.);
#195=ORIENTED_EDGE('',*,*,#151,.F.);
#196=ORIENTED_EDGE('',*,*,#152,.T.);
#197=ORIENTED_EDGE('',*,*,#153,.T.);
#198=ORIENTED_EDGE('',*,*,#154,.F.);
#199=ORIENTED_EDGE('',*,*,#153,.F.);
#200=ORIENTED_EDGE('',*,*,#154,.T.);
#201=ORIENTED_EDGE('',*,*,#155,.T.);
#202=ORIENTED_EDGE('',*,*,#156,.F.);
#203=ORIENTED_EDGE('',*,*,#155,.F.);
#204=ORIENTED_EDGE('',*,*,#156,.T.);
#205=ORIENTED_EDGE('',*,*,#157,.T.);
#206=ORIENTED_EDGE('',*,*,#158,.F.);
#207=ORIENTED_EDGE('',*,*,#157,.F.);
#208=ORIENTED_EDGE('',*,*,#158,.T.);
#209=ORIENTED_EDGE('',*,*,#159,.T.);
#210=ORIENTED_EDGE('',*,*,#160,.F.);
#211=ORIENTED_EDGE('',*,*,#159,.F.);
#212=ORIENTED_EDGE('',*,*,#160,.T.);
#213=ORIENTED_EDGE('',*,*,#161,.T.);
#214=ORIENTED_EDGE('',*,*,#162,.F.);
#215=ORIENTED_EDGE('',*,*,#161,.F.);
#216=ORIENTED_EDGE('',*,*,#162,.T.);
#217=ORIENTED_EDGE('',*,*,#163,.F.);
#218=ORIENTED_EDGE('',*,*,#163,.T.);
#219=ORIENTED_EDGE('',*,*,#164,.T.);
#220=ORIENTED_EDGE('',*,*,#165,.F.);
#221=ORIENTED_EDGE('',*,*,#166,.F.);
#222=ORIENTED_EDGE('',*,*,#164,.F.);
#223=ORIENTED_EDGE('',*,*,#147,.F.);
#224=ORIENTED_EDGE('',*,*,#167,.T.);
#225=ORIENTED_EDGE('',*,*,#168,.F.);
#226=ORIENTED_EDGE('',*,*,#167,.F.);
#227=ORIENTED_EDGE('',*,*,#150,.F.);
#228=ORIENTED_EDGE('',*,*,#169,.F.);
#229=ORIENTED_EDGE('',*,*,#170,.T.);
#230=ORIENTED_EDGE('',*,*,#171,.T.);
#231=ORIENTED_EDGE('',*,*,#170,.F.);
#232=ORIENTED_EDGE('',*,*,#165,.T.);
#233=ORIENTED_EDGE('',*,*,#166,.T.);
#234=ORIENTED_EDGE('',*,*,#172,.T.);
#235=ORIENTED_EDGE('',*,*,#173,.T.);
#236=ORIENTED_EDGE('',*,*,#172,.F.);
#237=ORIENTED_EDGE('',*,*,#174,.F.);
#238=ORIENTED_EDGE('',*,*,#175,.T.);
#239=ORIENTED_EDGE('',*,*,#168,.T.);
#240=ORIENTED_EDGE('',*,*,#175,.F.);
#241=ORIENTED_EDGE('',*,*,#176,.F.);
#242=ORIENTED_EDGE('',*,*,#177,.T.);
#243=ORIENTED_EDGE('',*,*,#174,.T.);
#244=ORIENTED_EDGE('',*,*,#177,.F.);
#245=ORIENTED_EDGE('',*,*,#176,.T.);
#246=ORIENTED_EDGE('',*,*,#178,.T.);
#247=ORIENTED_EDGE('',*,*,#179,.F.);
#248=ORIENTED_EDGE('',*,*,#178,.F.);
#249=ORIENTED_EDGE('',*,*,#180,.F.);
#250=ORIENTED_EDGE('',*,*,#181,.T.);
#251=ORIENTED_EDGE('',*,*,#179,.T.);
#252=ORIENTED_EDGE('',*,*,#181,.F.);
#253=ORIENTED_EDGE('',*,*,#171,.F.);
#254=ORIENTED_EDGE('',*,*,#182,.T.);
#255=ORIENTED_EDGE('',*,*,#180,.T.);
#256=ORIENTED_EDGE('',*,*,#182,.F.);
#257=ORIENTED_EDGE('',*,*,#169,.T.);
#258=ORIENTED_EDGE('',*,*,#183,.T.);
#259=ORIENTED_EDGE('',*,*,#184,.F.);
#260=ORIENTED_EDGE('',*,*,#183,.F.);
#261=ORIENTED_EDGE('',*,*,#184,.T.);
#262=ORIENTED_EDGE('',*,*,#185,.F.);
#263=ORIENTED_EDGE('',*,*,#185,.T.);
#264=ORIENTED_EDGE('',*,*,#186,.T.);
#265=ORIENTED_EDGE('',*,*,#173,.F.);
#266=ORIENTED_EDGE('',*,*,#186,.F.);
#267=CONICAL_SURFACE('',#313,59.0643398282201,0.785398163397451);
#268=CONICAL_SURFACE('',#319,58.7714466094067,0.785398163397449);
#269=CONICAL_SURFACE('',#323,58.7714466094067,0.78539816339745);
#270=CONICAL_SURFACE('',#327,59.3572330470336,0.78539816339745);
#271=CONICAL_SURFACE('',#331,49.4129524620215,0.0523598775598302);
#272=CONICAL_SURFACE('',#334,58.0125631329235,0.785398163397457);
#273=CONICAL_SURFACE('',#339,49.2489721510659,1.51843644923507);
#274=CONICAL_SURFACE('',#341,60.7714466094067,0.785398163397449);
#275=CONICAL_SURFACE('',#345,60.7714466094067,0.785398163397448);
#276=CONICAL_SURFACE('',#349,60.7714466094067,0.785398163397448);
#277=CONICAL_SURFACE('',#350,60.7714466094067,0.785398163397448);
#278=CONICAL_SURFACE('',#354,51.3605465634909,0.05235987755983);
#279=ADVANCED_FACE('',(#25),#267,.F.);
#280=ADVANCED_FACE('',(#26),#19,.F.);
#281=ADVANCED_FACE('',(#27),#268,.F.);
#282=ADVANCED_FACE('',(#28),#20,.F.);
#283=ADVANCED_FACE('',(#29),#269,.F.);
#284=ADVANCED_FACE('',(#30),#21,.F.);
#285=ADVANCED_FACE('',(#31),#270,.F.);
#286=ADVANCED_FACE('',(#32,#15),#17,.T.);
#287=ADVANCED_FACE('',(#33),#271,.F.);
#288=ADVANCED_FACE('',(#34),#272,.F.);
#289=ADVANCED_FACE('',(#35),#22,.T.);
#290=ADVANCED_FACE('',(#36),#273,.F.);
#291=ADVANCED_FACE('',(#37),#274,.T.);
#292=ADVANCED_FACE('',(#38),#23,.T.);
#293=ADVANCED_FACE('',(#39),#275,.T.);
#294=ADVANCED_FACE('',(#40),#24,.T.);
#295=ADVANCED_FACE('',(#41),#276,.T.);
#296=ADVANCED_FACE('',(#42),#277,.T.);
#297=ADVANCED_FACE('',(#43,#16),#18,.T.);
#298=ADVANCED_FACE('',(#44),#278,.T.);
#299=CLOSED_SHELL('',(#279,#280,#281,#282,#283,#284,#285,#286,#287,#288,
#289,#290,#291,#292,#293,#294,#295,#296,#297,#298));
#300=DERIVED_UNIT_ELEMENT(#302,1.);
#301=DERIVED_UNIT_ELEMENT(#547,-3.);
#302=(
MASS_UNIT()
NAMED_UNIT(*)
SI_UNIT(.KILO.,.GRAM.)
);
#303=DERIVED_UNIT((#300,#301));
#304=MEASURE_REPRESENTATION_ITEM('density measure',
POSITIVE_RATIO_MEASURE(8080.),#303);
#305=PROPERTY_DEFINITION_REPRESENTATION(#310,#307);
#306=PROPERTY_DEFINITION_REPRESENTATION(#311,#308);
#307=REPRESENTATION('material name',(#309),#544);
#308=REPRESENTATION('density',(#304),#544);
#309=DESCRIPTIVE_REPRESENTATION_ITEM('304L Stainless Steel',
'304L Stainless Steel');
#310=PROPERTY_DEFINITION('material property','material name',#554);
#311=PROPERTY_DEFINITION('material property','density of part',#554);
#312=AXIS2_PLACEMENT_3D('',#459,#355,#356);
#313=AXIS2_PLACEMENT_3D('',#460,#357,#358);
#314=AXIS2_PLACEMENT_3D('',#463,#359,#360);
#315=AXIS2_PLACEMENT_3D('',#466,#362,#363);
#316=AXIS2_PLACEMENT_3D('',#467,#364,#365);
#317=AXIS2_PLACEMENT_3D('',#468,#366,#367);
#318=AXIS2_PLACEMENT_3D('',#471,#369,#370);
#319=AXIS2_PLACEMENT_3D('',#472,#371,#372);
#320=AXIS2_PLACEMENT_3D('',#475,#374,#375);
#321=AXIS2_PLACEMENT_3D('',#476,#376,#377);
#322=AXIS2_PLACEMENT_3D('',#479,#379,#380);
#323=AXIS2_PLACEMENT_3D('',#480,#381,#382);
#324=AXIS2_PLACEMENT_3D('',#483,#384,#385);
#325=AXIS2_PLACEMENT_3D('',#484,#386,#387);
#326=AXIS2_PLACEMENT_3D('',#487,#389,#390);
#327=AXIS2_PLACEMENT_3D('',#488,#391,#392);
#328=AXIS2_PLACEMENT_3D('',#491,#394,#395);
#329=AXIS2_PLACEMENT_3D('',#492,#396,#397);
#330=AXIS2_PLACEMENT_3D('',#494,#398,#399);
#331=AXIS2_PLACEMENT_3D('',#495,#400,#401);
#332=AXIS2_PLACEMENT_3D('',#499,#403,#404);
#333=AXIS2_PLACEMENT_3D('',#500,#405,#406);
#334=AXIS2_PLACEMENT_3D('',#501,#407,#408);
#335=AXIS2_PLACEMENT_3D('',#504,#410,#411);
#336=AXIS2_PLACEMENT_3D('',#505,#412,#413);
#337=AXIS2_PLACEMENT_3D('',#507,#414,#415);
#338=AXIS2_PLACEMENT_3D('',#510,#417,#418);
#339=AXIS2_PLACEMENT_3D('',#511,#419,#420);
#340=AXIS2_PLACEMENT_3D('',#514,#422,#423);
#341=AXIS2_PLACEMENT_3D('',#515,#424,#425);
#342=AXIS2_PLACEMENT_3D('',#517,#426,#427);
#343=AXIS2_PLACEMENT_3D('',#519,#429,#430);
#344=AXIS2_PLACEMENT_3D('',#521,#431,#432);
#345=AXIS2_PLACEMENT_3D('',#523,#434,#435);
#346=AXIS2_PLACEMENT_3D('',#526,#437,#438);
#347=AXIS2_PLACEMENT_3D('',#527,#439,#440);
#348=AXIS2_PLACEMENT_3D('',#529,#441,#442);
#349=AXIS2_PLACEMENT_3D('',#531,#444,#445);
#350=AXIS2_PLACEMENT_3D('',#533,#447,#448);
#351=AXIS2_PLACEMENT_3D('',#536,#450,#451);
#352=AXIS2_PLACEMENT_3D('',#537,#452,#453);
#353=AXIS2_PLACEMENT_3D('',#539,#454,#455);
#354=AXIS2_PLACEMENT_3D('',#540,#456,#457);
#355=DIRECTION('axis',(0.,0.,1.));
#356=DIRECTION('refdir',(1.,0.,0.));
#357=DIRECTION('center_axis',(0.,-1.,0.));
#358=DIRECTION('ref_axis',(0.,0.,1.));
#359=DIRECTION('center_axis',(0.,1.,0.));
#360=DIRECTION('ref_axis',(1.,0.,0.));
#361=DIRECTION('',(-8.65956056235495E-17,-0.707106781186546,-0.707106781186549));
#362=DIRECTION('center_axis',(0.,1.,0.));
#363=DIRECTION('ref_axis',(1.,0.,0.));
#364=DIRECTION('center_axis',(0.,1.,0.));
#365=DIRECTION('ref_axis',(1.,0.,0.));
#366=DIRECTION('center_axis',(0.,1.,0.));
#367=DIRECTION('ref_axis',(0.,0.,1.));
#368=DIRECTION('',(0.,-1.,0.));
#369=DIRECTION('center_axis',(0.,1.,0.));
#370=DIRECTION('ref_axis',(1.,0.,0.));
#371=DIRECTION('center_axis',(0.,1.,0.));
#372=DIRECTION('ref_axis',(0.,0.,1.));
#373=DIRECTION('',(8.65956056235494E-17,-0.707106781186547,0.707106781186548));
#374=DIRECTION('center_axis',(0.,1.,0.));
#375=DIRECTION('ref_axis',(1.,0.,0.));
#376=DIRECTION('center_axis',(0.,1.,0.));
#377=DIRECTION('ref_axis',(0.,0.,1.));
#378=DIRECTION('',(0.,-1.,0.));
#379=DIRECTION('center_axis',(0.,1.,0.));
#380=DIRECTION('ref_axis',(1.,0.,0.));
#381=DIRECTION('center_axis',(0.,-1.,0.));
#382=DIRECTION('ref_axis',(0.,0.,1.));
#383=DIRECTION('',(-8.65956056235495E-17,-0.707106781186546,-0.707106781186549));
#384=DIRECTION('center_axis',(0.,1.,0.));
#385=DIRECTION('ref_axis',(1.,0.,0.));
#386=DIRECTION('center_axis',(0.,1.,0.));
#387=DIRECTION('ref_axis',(0.,0.,1.));
#388=DIRECTION('',(0.,-1.,0.));
#389=DIRECTION('center_axis',(0.,1.,0.));
#390=DIRECTION('ref_axis',(1.,0.,0.));
#391=DIRECTION('center_axis',(0.,1.,0.));
#392=DIRECTION('ref_axis',(0.,0.,1.));
#393=DIRECTION('',(8.65956056235494E-17,-0.707106781186547,0.707106781186548));
#394=DIRECTION('center_axis',(0.,1.,0.));
#395=DIRECTION('ref_axis',(1.,0.,0.));
#396=DIRECTION('center_axis',(0.,1.,0.));
#397=DIRECTION('ref_axis',(0.,0.,1.));
#398=DIRECTION('center_axis',(0.,1.,0.));
#399=DIRECTION('ref_axis',(1.,0.,0.));
#400=DIRECTION('center_axis',(0.,1.,0.));
#401=DIRECTION('ref_axis',(0.,0.,1.));
#402=DIRECTION('',(6.40930612932375E-18,-0.998629534754574,0.0523359562429441));
#403=DIRECTION('center_axis',(0.,1.,0.));
#404=DIRECTION('ref_axis',(1.,0.,0.));
#405=DIRECTION('center_axis',(0.,1.,0.));
#406=DIRECTION('ref_axis',(1.,0.,0.));
#407=DIRECTION('center_axis',(0.,1.,0.));
#408=DIRECTION('ref_axis',(1.,0.,0.));
#409=DIRECTION('',(-0.707106781186554,0.707106781186541,8.65956056235501E-17));
#410=DIRECTION('center_axis',(0.,-1.,0.));
#411=DIRECTION('ref_axis',(1.,0.,0.));
#412=DIRECTION('center_axis',(0.,-1.,0.));
#413=DIRECTION('ref_axis',(1.,0.,0.));
#414=DIRECTION('center_axis',(0.,-1.,0.));
#415=DIRECTION('ref_axis',(1.,0.,0.));
#416=DIRECTION('',(0.,1.,0.));
#417=DIRECTION('center_axis',(0.,-1.,0.));
#418=DIRECTION('ref_axis',(1.,0.,0.));
#419=DIRECTION('center_axis',(0.,-1.,0.));
#420=DIRECTION('ref_axis',(1.,0.,0.));
#421=DIRECTION('',(-0.998629534754574,-0.0523359562429406,-1.2229684632712E-16));
#422=DIRECTION('center_axis',(0.,-1.,0.));
#423=DIRECTION('ref_axis',(1.,0.,0.));
#424=DIRECTION('center_axis',(0.,-1.,0.));
#425=DIRECTION('ref_axis',(1.,0.,0.));
#426=DIRECTION('center_axis',(0.,-1.,0.));
#427=DIRECTION('ref_axis',(1.,0.,0.));
#428=DIRECTION('',(0.707106781186548,0.707106781186547,8.65956056235494E-17));
#429=DIRECTION('center_axis',(0.,-1.,0.));
#430=DIRECTION('ref_axis',(1.,0.,0.));
#431=DIRECTION('center_axis',(0.,-1.,0.));
#432=DIRECTION('ref_axis',(1.,0.,0.));
#433=DIRECTION('',(0.,1.,0.));
#434=DIRECTION('center_axis',(0.,1.,0.));
#435=DIRECTION('ref_axis',(1.,0.,0.));
#436=DIRECTION('',(0.707106781186547,-0.707106781186548,-8.65956056235493E-17));
#437=DIRECTION('center_axis',(0.,-1.,0.));
#438=DIRECTION('ref_axis',(1.,0.,0.));
#439=DIRECTION('center_axis',(0.,-1.,0.));
#440=DIRECTION('ref_axis',(1.,0.,0.));
#441=DIRECTION('center_axis',(0.,-1.,0.));
#442=DIRECTION('ref_axis',(1.,0.,0.));
#443=DIRECTION('',(0.,1.,0.));
#444=DIRECTION('center_axis',(0.,-1.,0.));
#445=DIRECTION('ref_axis',(1.,0.,0.));
#446=DIRECTION('',(0.707106781186547,0.707106781186548,8.65956056235493E-17));
#447=DIRECTION('center_axis',(0.,1.,0.));
#448=DIRECTION('ref_axis',(1.,0.,0.));
#449=DIRECTION('',(0.707106781186547,-0.707106781186548,-8.65956056235493E-17));
#450=DIRECTION('center_axis',(0.,-1.,0.));
#451=DIRECTION('ref_axis',(1.,0.,0.));
#452=DIRECTION('center_axis',(0.,-1.,0.));
#453=DIRECTION('ref_axis',(0.,0.,-1.));
#454=DIRECTION('center_axis',(0.,-1.,0.));
#455=DIRECTION('ref_axis',(1.,0.,0.));
#456=DIRECTION('center_axis',(0.,1.,0.));
#457=DIRECTION('ref_axis',(1.,0.,0.));
#458=DIRECTION('',(0.052335956242944,-0.998629534754574,-6.40930612932373E-18));
#459=CARTESIAN_POINT('',(0.,0.,0.));
#460=CARTESIAN_POINT('Origin',(0.,85.6301262658472,0.));
#461=CARTESIAN_POINT('',(-57.1286796564403,87.565786437627,6.99624546807741E-15));
#462=CARTESIAN_POINT('',(-6.99624546807741E-15,87.565786437627,-57.1286796564403));
#463=CARTESIAN_POINT('Origin',(0.,87.565786437627,0.));
#464=CARTESIAN_POINT('',(-7.47034547479885E-15,83.6944660940674,-61.));
#465=CARTESIAN_POINT('',(-7.23329547143813E-15,85.6301262658472,-59.0643398282201));
#466=CARTESIAN_POINT('Origin',(0.,83.6944660940674,0.));
#467=CARTESIAN_POINT('Origin',(0.,87.565786437627,0.));
#468=CARTESIAN_POINT('Origin',(0.,81.3309644062713,0.));
#469=CARTESIAN_POINT('',(-7.47034547479885E-15,78.9674627184752,-61.));
#470=CARTESIAN_POINT('',(-7.47034547479885E-15,81.3309644062713,-61.));
#471=CARTESIAN_POINT('Origin',(0.,78.9674627184752,0.));
#472=CARTESIAN_POINT('Origin',(0.,76.7389093278819,0.));
#473=CARTESIAN_POINT('',(-6.92450731949503E-15,74.5103559372886,-56.5428932188133));
#474=CARTESIAN_POINT('',(-7.19742639714694E-15,76.7389093278819,-58.7714466094067));
#475=CARTESIAN_POINT('Origin',(0.,74.5103559372886,0.));
#476=CARTESIAN_POINT('Origin',(0.,70.4900000000001,0.));
#477=CARTESIAN_POINT('',(-6.92450731949504E-15,66.4696440627115,-56.5428932188133));
#478=CARTESIAN_POINT('',(-6.92450731949504E-15,70.4900000000001,-56.5428932188133));
#479=CARTESIAN_POINT('Origin',(0.,66.4696440627115,0.));
#480=CARTESIAN_POINT('Origin',(0.,64.2410906721182,0.));
#481=CARTESIAN_POINT('',(-7.47034547479885E-15,62.0125372815249,-61.));
#482=CARTESIAN_POINT('',(-7.19742639714694E-15,64.2410906721182,-58.7714466094067));
#483=CARTESIAN_POINT('Origin',(0.,62.0125372815249,0.));
#484=CARTESIAN_POINT('Origin',(0.,59.6490355937288,0.));
#485=CARTESIAN_POINT('',(-7.47034547479885E-15,57.2855339059327,-61.));
#486=CARTESIAN_POINT('',(-7.47034547479885E-15,59.6490355937288,-61.));
#487=CARTESIAN_POINT('Origin',(0.,57.2855339059327,0.));
#488=CARTESIAN_POINT('Origin',(0.,55.6427669529664,0.));
#489=CARTESIAN_POINT('',(-7.06798361665979E-15,54.,-57.7144660940673));
#490=CARTESIAN_POINT('',(-7.26916454572932E-15,55.6427669529664,-59.3572330470336));
#491=CARTESIAN_POINT('Origin',(0.,54.,0.));
#492=CARTESIAN_POINT('Origin',(0.,54.,50.8252196914203));
#493=CARTESIAN_POINT('',(-6.22429426110589E-15,54.,-50.8252196914203));
#494=CARTESIAN_POINT('Origin',(0.,54.,0.));
#495=CARTESIAN_POINT('Origin',(0.,27.0523359562429,0.));
#496=CARTESIAN_POINT('',(-5.87838855270111E-15,0.104671912485883,-48.0006852326228));
#497=CARTESIAN_POINT('',(-6.0513414069035E-15,27.0523359562429,-49.4129524620215));
#498=CARTESIAN_POINT('',(-48.0006852326228,0.104671912485878,-5.87838855270111E-15));
#499=CARTESIAN_POINT('Origin',(0.,0.104671912485887,0.));
#500=CARTESIAN_POINT('Origin',(0.,0.104671912485887,0.));
#501=CARTESIAN_POINT('Origin',(0.,88.4496699141102,0.));
#502=CARTESIAN_POINT('',(-58.5428932188134,88.9800000000001,7.16943667932451E-15));
#503=CARTESIAN_POINT('',(-58.0125631329235,88.4496699141102,7.10448997510685E-15));
#504=CARTESIAN_POINT('Origin',(0.,88.9800000000001,0.));
#505=CARTESIAN_POINT('Origin',(0.,59.6490355937289,0.));
#506=CARTESIAN_POINT('',(-63.,56.4571067811866,-7.71527483462833E-15));
#507=CARTESIAN_POINT('Origin',(0.,56.4571067811866,0.));
#508=CARTESIAN_POINT('',(-63.,62.8409644062712,-7.71527483462833E-15));
#509=CARTESIAN_POINT('',(-63.,59.6490355937289,-7.71527483462833E-15));
#510=CARTESIAN_POINT('Origin',(0.,62.8409644062712,0.));
#511=CARTESIAN_POINT('Origin',(0.,0.0392519671822056,0.));
#512=CARTESIAN_POINT('',(-49.9979443021319,-3.56485674313234E-15,-6.12298224535535E-15));
#513=CARTESIAN_POINT('',(-49.2489721510659,0.0392519671822056,-6.03125961061E-15));
#514=CARTESIAN_POINT('Origin',(0.,0.,0.));
#515=CARTESIAN_POINT('Origin',(0.,86.7514466094068,0.));
#516=CARTESIAN_POINT('',(-63.,84.5228932188135,-7.71527483462833E-15));
#517=CARTESIAN_POINT('Origin',(0.,84.5228932188135,0.));
#518=CARTESIAN_POINT('',(-60.7714466094067,86.7514466094068,-7.44235575697642E-15));
#519=CARTESIAN_POINT('Origin',(0.,81.3309644062712,0.));
#520=CARTESIAN_POINT('',(-63.,78.1390355937289,-7.71527483462833E-15));
#521=CARTESIAN_POINT('Origin',(0.,78.1390355937289,0.));
#522=CARTESIAN_POINT('',(-63.,81.3309644062712,-7.71527483462833E-15));
#523=CARTESIAN_POINT('Origin',(0.,75.9104822031356,0.));
#524=CARTESIAN_POINT('',(-58.5428932188135,73.6819288125423,7.16943667932452E-15));
#525=CARTESIAN_POINT('',(-60.7714466094067,75.9104822031356,7.44235575697642E-15));
#526=CARTESIAN_POINT('Origin',(0.,73.6819288125424,0.));
#527=CARTESIAN_POINT('Origin',(0.,70.4900000000001,0.));
#528=CARTESIAN_POINT('',(-58.5428932188134,67.2980711874577,-7.16943667932451E-15));
#529=CARTESIAN_POINT('Origin',(0.,67.2980711874577,0.));
#530=CARTESIAN_POINT('',(-58.5428932188134,70.4900000000001,-7.16943667932451E-15));
#531=CARTESIAN_POINT('Origin',(0.,65.0695177968645,0.));
#532=CARTESIAN_POINT('',(-60.7714466094067,65.0695177968645,-7.44235575697642E-15));
#533=CARTESIAN_POINT('Origin',(0.,54.2285533905933,0.));
#534=CARTESIAN_POINT('',(-58.5428932188134,52.,7.16943667932451E-15));
#535=CARTESIAN_POINT('',(-60.7714466094067,54.2285533905933,7.44235575697642E-15));
#536=CARTESIAN_POINT('Origin',(0.,52.,0.));
#537=CARTESIAN_POINT('Origin',(52.72314882485,52.,0.));
#538=CARTESIAN_POINT('',(-52.72314882485,52.,6.45672354493221E-15));
#539=CARTESIAN_POINT('Origin',(0.,52.,0.));
#540=CARTESIAN_POINT('Origin',(0.,26.,0.));
#541=CARTESIAN_POINT('',(-51.3605465634909,26.,6.28985289514377E-15));
#542=UNCERTAINTY_MEASURE_WITH_UNIT(LENGTH_MEASURE(0.01),#546,
'DISTANCE_ACCURACY_VALUE',
'Maximum model space distance between geometric entities at asserted c
onnectivities');
#543=UNCERTAINTY_MEASURE_WITH_UNIT(LENGTH_MEASURE(0.01),#546,
'DISTANCE_ACCURACY_VALUE',
'Maximum model space distance between geometric entities at asserted c
onnectivities');
#544=(
GEOMETRIC_REPRESENTATION_CONTEXT(3)
GLOBAL_UNCERTAINTY_ASSIGNED_CONTEXT((#542))
GLOBAL_UNIT_ASSIGNED_CONTEXT((#546,#548,#549))
REPRESENTATION_CONTEXT('','3D')
);
#545=(
GEOMETRIC_REPRESENTATION_CONTEXT(3)
GLOBAL_UNCERTAINTY_ASSIGNED_CONTEXT((#543))
GLOBAL_UNIT_ASSIGNED_CONTEXT((#546,#548,#549))
REPRESENTATION_CONTEXT('','3D')
);
#546=(
LENGTH_UNIT()
NAMED_UNIT(*)
SI_UNIT(.MILLI.,.METRE.)
);
#547=(
LENGTH_UNIT()
NAMED_UNIT(*)
SI_UNIT($,.METRE.)
);
#548=(
NAMED_UNIT(*)
PLANE_ANGLE_UNIT()
SI_UNIT($,.RADIAN.)
);
#549=(
NAMED_UNIT(*)
SI_UNIT($,.STERADIAN.)
SOLID_ANGLE_UNIT()
);
#550=SHAPE_DEFINITION_REPRESENTATION(#551,#552);
#551=PRODUCT_DEFINITION_SHAPE('',$,#554);
#552=SHAPE_REPRESENTATION('',(#312),#544);
#553=PRODUCT_DEFINITION_CONTEXT('part definition',#558,'design');
#554=PRODUCT_DEFINITION('BFM Spigot 100mm','BFM Spigot 100mm v3',#555,#553);
#555=PRODUCT_DEFINITION_FORMATION('',$,#560);
#556=PRODUCT_RELATED_PRODUCT_CATEGORY('BFM Spigot 100mm v3',
'BFM Spigot 100mm v3',(#560));
#557=APPLICATION_PROTOCOL_DEFINITION('international standard',
'automotive_design',2009,#558);
#558=APPLICATION_CONTEXT(
'Core Data for Automotive Mechanical Design Process');
#559=PRODUCT_CONTEXT('part definition',#558,'mechanical');
#560=PRODUCT('BFM Spigot 100mm','BFM Spigot 100mm v3',$,(#559));
#561=PRESENTATION_STYLE_ASSIGNMENT((#562));
#562=SURFACE_STYLE_USAGE(.BOTH.,#563);
#563=SURFACE_SIDE_STYLE('',(#564));
#564=SURFACE_STYLE_FILL_AREA(#565);
#565=FILL_AREA_STYLE('Stainless Steel - Polished',(#566));
#566=FILL_AREA_STYLE_COLOUR('Stainless Steel - Polished',#567);
#567=COLOUR_RGB('Stainless Steel - Polished',0.796078431372549,0.796078431372549,
0.796078431372549);
ENDSEC;
END-ISO-10303-21;
