ISO-10303-21;
HEADER;
/* Generated by software containing ST-Developer
 * from STEP Tools, Inc. (www.steptools.com) 
 */

FILE_DESCRIPTION(
/* description */ (''),
/* implementation_level */ '2;1');

FILE_NAME(
/* name */ 
'M:/Public/Photos, Drawings, Video/CAD Drawings/BFM Drawings/Standard 
BFM Connectors & Spigots/.STP Files/Spigots/BFM Spigot 1100mm v1.step',

/* time_stamp */ '2021-08-06T08:12:58+12:00',
/* author */ (''),
/* organization */ (''),
/* preprocessor_version */ 'ST-DEVELOPER v18.1',
/* originating_system */ 'Autodesk Translation Framework v10.9.0.1377',

/* authorisation */ '');

FILE_SCHEMA (('AUTOMOTIVE_DESIGN { 1 0 10303 214 3 1 1 }'));
ENDSEC;

DATA;
#10=MECHANICAL_DESIGN_GEOMETRIC_PRESENTATION_REPRESENTATION('',(#13,#14),
#543);
#11=SHAPE_REPRESENTATION_RELATIONSHIP('SRR','None',#550,#12);
#12=ADVANCED_BREP_SHAPE_REPRESENTATION('',(#15,#16),#542);
#13=STYLED_ITEM('',(#559),#15);
#14=STYLED_ITEM('',(#559),#16);
#15=MANIFOLD_SOLID_BREP('Body9',#299);
#16=MANIFOLD_SOLID_BREP('Body9',#300);
#17=FACE_BOUND('',#65,.T.);
#18=FACE_BOUND('',#75,.T.);
#19=FACE_BOUND('',#79,.T.);
#20=FACE_BOUND('',#82,.T.);
#21=PLANE('',#327);
#22=PLANE('',#345);
#23=PLANE('',#351);
#24=PLANE('',#355);
#25=CONICAL_SURFACE('',#317,560.875098246826,0.78576711103008);
#26=CONICAL_SURFACE('',#321,560.875098246825,0.785029215764837);
#27=CONICAL_SURFACE('',#323,562.993320791745,0.00200268481934889);
#28=CONICAL_SURFACE('',#325,560.86841903857,0.785767111030063);
#29=CONICAL_SURFACE('',#329,553.726566958896,1.51843644923506);
#30=CONICAL_SURFACE('',#331,556.863968712071,1.13044495292682);
#31=CONICAL_SURFACE('',#335,558.875098246825,0.785029215764777);
#32=CONICAL_SURFACE('',#339,558.875098246825,0.785767111030079);
#33=CONICAL_SURFACE('',#343,558.875098246825,0.782960366933199);
#34=CONICAL_SURFACE('',#347,560.866287789885,0.785029215764821);
#35=CONICAL_SURFACE('',#348,553.362598246825,0.0523598775598383);
#36=CONICAL_SURFACE('',#353,551.36122865771,0.0523073450397812);
#37=FACE_OUTER_BOUND('',#58,.T.);
#38=FACE_OUTER_BOUND('',#59,.T.);
#39=FACE_OUTER_BOUND('',#60,.T.);
#40=FACE_OUTER_BOUND('',#61,.T.);
#41=FACE_OUTER_BOUND('',#62,.T.);
#42=FACE_OUTER_BOUND('',#63,.T.);
#43=FACE_OUTER_BOUND('',#64,.T.);
#44=FACE_OUTER_BOUND('',#66,.T.);
#45=FACE_OUTER_BOUND('',#67,.T.);
#46=FACE_OUTER_BOUND('',#68,.T.);
#47=FACE_OUTER_BOUND('',#69,.T.);
#48=FACE_OUTER_BOUND('',#70,.T.);
#49=FACE_OUTER_BOUND('',#71,.T.);
#50=FACE_OUTER_BOUND('',#72,.T.);
#51=FACE_OUTER_BOUND('',#73,.T.);
#52=FACE_OUTER_BOUND('',#74,.T.);
#53=FACE_OUTER_BOUND('',#76,.T.);
#54=FACE_OUTER_BOUND('',#77,.T.);
#55=FACE_OUTER_BOUND('',#78,.T.);
#56=FACE_OUTER_BOUND('',#80,.T.);
#57=FACE_OUTER_BOUND('',#81,.T.);
#58=EDGE_LOOP('',(#197,#198,#199,#200));
#59=EDGE_LOOP('',(#201,#202,#203,#204));
#60=EDGE_LOOP('',(#205,#206,#207,#208));
#61=EDGE_LOOP('',(#209,#210,#211,#212));
#62=EDGE_LOOP('',(#213,#214,#215,#216));
#63=EDGE_LOOP('',(#217,#218,#219,#220));
#64=EDGE_LOOP('',(#221));
#65=EDGE_LOOP('',(#222));
#66=EDGE_LOOP('',(#223,#224,#225,#226));
#67=EDGE_LOOP('',(#227,#228,#229,#230));
#68=EDGE_LOOP('',(#231,#232,#233,#234));
#69=EDGE_LOOP('',(#235,#236,#237,#238));
#70=EDGE_LOOP('',(#239,#240,#241,#242));
#71=EDGE_LOOP('',(#243,#244,#245,#246));
#72=EDGE_LOOP('',(#247,#248,#249,#250));
#73=EDGE_LOOP('',(#251,#252,#253,#254));
#74=EDGE_LOOP('',(#255));
#75=EDGE_LOOP('',(#256));
#76=EDGE_LOOP('',(#257,#258,#259,#260));
#77=EDGE_LOOP('',(#261,#262,#263,#264));
#78=EDGE_LOOP('',(#265));
#79=EDGE_LOOP('',(#266));
#80=EDGE_LOOP('',(#267,#268,#269,#270));
#81=EDGE_LOOP('',(#271));
#82=EDGE_LOOP('',(#272));
#83=LINE('',#464,#100);
#84=LINE('',#469,#101);
#85=LINE('',#473,#102);
#86=LINE('',#477,#103);
#87=LINE('',#481,#104);
#88=LINE('',#485,#105);
#89=LINE('',#491,#106);
#90=LINE('',#495,#107);
#91=LINE('',#499,#108);
#92=LINE('',#503,#109);
#93=LINE('',#507,#110);
#94=LINE('',#511,#111);
#95=LINE('',#515,#112);
#96=LINE('',#519,#113);
#97=LINE('',#525,#114);
#98=LINE('',#530,#115);
#99=LINE('',#538,#116);
#100=VECTOR('',#362,563.000000000001);
#101=VECTOR('',#369,560.875098246826);
#102=VECTOR('',#374,558.75019649365);
#103=VECTOR('',#379,560.875098246825);
#104=VECTOR('',#384,562.993320791745);
#105=VECTOR('',#389,560.86841903857);
#106=VECTOR('',#396,553.726566958895);
#107=VECTOR('',#401,556.863968712071);
#108=VECTOR('',#406,561.000000000001);
#109=VECTOR('',#411,558.875098246825);
#110=VECTOR('',#416,556.75019649365);
#111=VECTOR('',#421,558.875098246825);
#112=VECTOR('',#426,561.000000000001);
#113=VECTOR('',#431,558.875098246826);
#114=VECTOR('',#440,560.866287789885);
#115=VECTOR('',#445,553.362598246825);
#116=VECTOR('',#456,551.36122865771);
#117=CIRCLE('',#315,563.000000000001);
#118=CIRCLE('',#316,563.000000000001);
#119=CIRCLE('',#318,558.75019649365);
#120=CIRCLE('',#320,558.75019649365);
#121=CIRCLE('',#322,563.000000000001);
#122=CIRCLE('',#324,562.986641583489);
#123=CIRCLE('',#326,558.75019649365);
#124=CIRCLE('',#328,554.72519649365);
#125=CIRCLE('',#330,552.727937424141);
#126=CIRCLE('',#332,561.000000000001);
#127=CIRCLE('',#334,561.000000000001);
#128=CIRCLE('',#336,556.75019649365);
#129=CIRCLE('',#338,556.75019649365);
#130=CIRCLE('',#340,561.);
#131=CIRCLE('',#342,561.000000000001);
#132=CIRCLE('',#344,556.75019649365);
#133=CIRCLE('',#346,558.732575579769);
#134=CIRCLE('',#349,552.);
#135=CIRCLE('',#350,554.72519649365);
#136=CIRCLE('',#352,552.722457315421);
#137=CIRCLE('',#354,550.);
#138=VERTEX_POINT('',#461);
#139=VERTEX_POINT('',#463);
#140=VERTEX_POINT('',#467);
#141=VERTEX_POINT('',#471);
#142=VERTEX_POINT('',#475);
#143=VERTEX_POINT('',#479);
#144=VERTEX_POINT('',#483);
#145=VERTEX_POINT('',#487);
#146=VERTEX_POINT('',#490);
#147=VERTEX_POINT('',#494);
#148=VERTEX_POINT('',#498);
#149=VERTEX_POINT('',#502);
#150=VERTEX_POINT('',#506);
#151=VERTEX_POINT('',#510);
#152=VERTEX_POINT('',#514);
#153=VERTEX_POINT('',#518);
#154=VERTEX_POINT('',#522);
#155=VERTEX_POINT('',#527);
#156=VERTEX_POINT('',#529);
#157=VERTEX_POINT('',#533);
#158=VERTEX_POINT('',#536);
#159=EDGE_CURVE('',#138,#138,#117,.T.);
#160=EDGE_CURVE('',#138,#139,#83,.T.);
#161=EDGE_CURVE('',#139,#139,#118,.T.);
#162=EDGE_CURVE('',#140,#140,#119,.T.);
#163=EDGE_CURVE('',#140,#138,#84,.T.);
#164=EDGE_CURVE('',#141,#141,#120,.T.);
#165=EDGE_CURVE('',#141,#140,#85,.T.);
#166=EDGE_CURVE('',#142,#142,#121,.T.);
#167=EDGE_CURVE('',#142,#141,#86,.T.);
#168=EDGE_CURVE('',#143,#143,#122,.T.);
#169=EDGE_CURVE('',#143,#142,#87,.T.);
#170=EDGE_CURVE('',#144,#144,#123,.T.);
#171=EDGE_CURVE('',#144,#143,#88,.T.);
#172=EDGE_CURVE('',#145,#145,#124,.T.);
#173=EDGE_CURVE('',#145,#146,#89,.T.);
#174=EDGE_CURVE('',#146,#146,#125,.T.);
#175=EDGE_CURVE('',#146,#147,#90,.T.);
#176=EDGE_CURVE('',#147,#147,#126,.T.);
#177=EDGE_CURVE('',#147,#148,#91,.T.);
#178=EDGE_CURVE('',#148,#148,#127,.T.);
#179=EDGE_CURVE('',#148,#149,#92,.T.);
#180=EDGE_CURVE('',#149,#149,#128,.T.);
#181=EDGE_CURVE('',#149,#150,#93,.T.);
#182=EDGE_CURVE('',#150,#150,#129,.T.);
#183=EDGE_CURVE('',#150,#151,#94,.T.);
#184=EDGE_CURVE('',#151,#151,#130,.T.);
#185=EDGE_CURVE('',#151,#152,#95,.T.);
#186=EDGE_CURVE('',#152,#152,#131,.T.);
#187=EDGE_CURVE('',#152,#153,#96,.T.);
#188=EDGE_CURVE('',#153,#153,#132,.T.);
#189=EDGE_CURVE('',#154,#154,#133,.T.);
#190=EDGE_CURVE('',#139,#154,#97,.T.);
#191=EDGE_CURVE('',#155,#155,#134,.T.);
#192=EDGE_CURVE('',#155,#156,#98,.T.);
#193=EDGE_CURVE('',#156,#156,#135,.T.);
#194=EDGE_CURVE('',#157,#157,#136,.T.);
#195=EDGE_CURVE('',#158,#158,#137,.T.);
#196=EDGE_CURVE('',#158,#157,#99,.T.);
#197=ORIENTED_EDGE('',*,*,#159,.F.);
#198=ORIENTED_EDGE('',*,*,#160,.T.);
#199=ORIENTED_EDGE('',*,*,#161,.T.);
#200=ORIENTED_EDGE('',*,*,#160,.F.);
#201=ORIENTED_EDGE('',*,*,#162,.F.);
#202=ORIENTED_EDGE('',*,*,#163,.T.);
#203=ORIENTED_EDGE('',*,*,#159,.T.);
#204=ORIENTED_EDGE('',*,*,#163,.F.);
#205=ORIENTED_EDGE('',*,*,#164,.F.);
#206=ORIENTED_EDGE('',*,*,#165,.T.);
#207=ORIENTED_EDGE('',*,*,#162,.T.);
#208=ORIENTED_EDGE('',*,*,#165,.F.);
#209=ORIENTED_EDGE('',*,*,#166,.F.);
#210=ORIENTED_EDGE('',*,*,#167,.T.);
#211=ORIENTED_EDGE('',*,*,#164,.T.);
#212=ORIENTED_EDGE('',*,*,#167,.F.);
#213=ORIENTED_EDGE('',*,*,#168,.F.);
#214=ORIENTED_EDGE('',*,*,#169,.T.);
#215=ORIENTED_EDGE('',*,*,#166,.T.);
#216=ORIENTED_EDGE('',*,*,#169,.F.);
#217=ORIENTED_EDGE('',*,*,#170,.F.);
#218=ORIENTED_EDGE('',*,*,#171,.T.);
#219=ORIENTED_EDGE('',*,*,#168,.T.);
#220=ORIENTED_EDGE('',*,*,#171,.F.);
#221=ORIENTED_EDGE('',*,*,#170,.T.);
#222=ORIENTED_EDGE('',*,*,#172,.F.);
#223=ORIENTED_EDGE('',*,*,#172,.T.);
#224=ORIENTED_EDGE('',*,*,#173,.T.);
#225=ORIENTED_EDGE('',*,*,#174,.F.);
#226=ORIENTED_EDGE('',*,*,#173,.F.);
#227=ORIENTED_EDGE('',*,*,#174,.T.);
#228=ORIENTED_EDGE('',*,*,#175,.T.);
#229=ORIENTED_EDGE('',*,*,#176,.F.);
#230=ORIENTED_EDGE('',*,*,#175,.F.);
#231=ORIENTED_EDGE('',*,*,#176,.T.);
#232=ORIENTED_EDGE('',*,*,#177,.T.);
#233=ORIENTED_EDGE('',*,*,#178,.F.);
#234=ORIENTED_EDGE('',*,*,#177,.F.);
#235=ORIENTED_EDGE('',*,*,#178,.T.);
#236=ORIENTED_EDGE('',*,*,#179,.T.);
#237=ORIENTED_EDGE('',*,*,#180,.F.);
#238=ORIENTED_EDGE('',*,*,#179,.F.);
#239=ORIENTED_EDGE('',*,*,#180,.T.);
#240=ORIENTED_EDGE('',*,*,#181,.T.);
#241=ORIENTED_EDGE('',*,*,#182,.F.);
#242=ORIENTED_EDGE('',*,*,#181,.F.);
#243=ORIENTED_EDGE('',*,*,#182,.T.);
#244=ORIENTED_EDGE('',*,*,#183,.T.);
#245=ORIENTED_EDGE('',*,*,#184,.F.);
#246=ORIENTED_EDGE('',*,*,#183,.F.);
#247=ORIENTED_EDGE('',*,*,#184,.T.);
#248=ORIENTED_EDGE('',*,*,#185,.T.);
#249=ORIENTED_EDGE('',*,*,#186,.F.);
#250=ORIENTED_EDGE('',*,*,#185,.F.);
#251=ORIENTED_EDGE('',*,*,#186,.T.);
#252=ORIENTED_EDGE('',*,*,#187,.T.);
#253=ORIENTED_EDGE('',*,*,#188,.F.);
#254=ORIENTED_EDGE('',*,*,#187,.F.);
#255=ORIENTED_EDGE('',*,*,#189,.F.);
#256=ORIENTED_EDGE('',*,*,#188,.T.);
#257=ORIENTED_EDGE('',*,*,#161,.F.);
#258=ORIENTED_EDGE('',*,*,#190,.T.);
#259=ORIENTED_EDGE('',*,*,#189,.T.);
#260=ORIENTED_EDGE('',*,*,#190,.F.);
#261=ORIENTED_EDGE('',*,*,#191,.F.);
#262=ORIENTED_EDGE('',*,*,#192,.T.);
#263=ORIENTED_EDGE('',*,*,#193,.T.);
#264=ORIENTED_EDGE('',*,*,#192,.F.);
#265=ORIENTED_EDGE('',*,*,#193,.F.);
#266=ORIENTED_EDGE('',*,*,#194,.T.);
#267=ORIENTED_EDGE('',*,*,#195,.T.);
#268=ORIENTED_EDGE('',*,*,#196,.T.);
#269=ORIENTED_EDGE('',*,*,#194,.F.);
#270=ORIENTED_EDGE('',*,*,#196,.F.);
#271=ORIENTED_EDGE('',*,*,#191,.T.);
#272=ORIENTED_EDGE('',*,*,#195,.F.);
#273=CYLINDRICAL_SURFACE('',#314,563.000000000001);
#274=CYLINDRICAL_SURFACE('',#319,558.75019649365);
#275=CYLINDRICAL_SURFACE('',#333,561.000000000001);
#276=CYLINDRICAL_SURFACE('',#337,556.75019649365);
#277=CYLINDRICAL_SURFACE('',#341,561.000000000001);
#278=ADVANCED_FACE('',(#37),#273,.T.);
#279=ADVANCED_FACE('',(#38),#25,.T.);
#280=ADVANCED_FACE('',(#39),#274,.T.);
#281=ADVANCED_FACE('',(#40),#26,.T.);
#282=ADVANCED_FACE('',(#41),#27,.T.);
#283=ADVANCED_FACE('',(#42),#28,.T.);
#284=ADVANCED_FACE('',(#43,#17),#21,.T.);
#285=ADVANCED_FACE('',(#44),#29,.F.);
#286=ADVANCED_FACE('',(#45),#30,.F.);
#287=ADVANCED_FACE('',(#46),#275,.F.);
#288=ADVANCED_FACE('',(#47),#31,.F.);
#289=ADVANCED_FACE('',(#48),#276,.F.);
#290=ADVANCED_FACE('',(#49),#32,.F.);
#291=ADVANCED_FACE('',(#50),#277,.F.);
#292=ADVANCED_FACE('',(#51),#33,.F.);
#293=ADVANCED_FACE('',(#52,#18),#22,.T.);
#294=ADVANCED_FACE('',(#53),#34,.T.);
#295=ADVANCED_FACE('',(#54),#35,.T.);
#296=ADVANCED_FACE('',(#55,#19),#23,.T.);
#297=ADVANCED_FACE('',(#56),#36,.F.);
#298=ADVANCED_FACE('',(#57,#20),#24,.T.);
#299=CLOSED_SHELL('',(#278,#279,#280,#281,#282,#283,#284,#285,#286,#287,
#288,#289,#290,#291,#292,#293,#294));
#300=CLOSED_SHELL('',(#295,#296,#297,#298));
#301=DERIVED_UNIT_ELEMENT(#303,1.);
#302=DERIVED_UNIT_ELEMENT(#545,-3.);
#303=(
MASS_UNIT()
NAMED_UNIT(*)
SI_UNIT(.KILO.,.GRAM.)
);
#304=DERIVED_UNIT((#301,#302));
#305=MEASURE_REPRESENTATION_ITEM('density measure',
POSITIVE_RATIO_MEASURE(8080.),#304);
#306=PROPERTY_DEFINITION_REPRESENTATION(#311,#308);
#307=PROPERTY_DEFINITION_REPRESENTATION(#312,#309);
#308=REPRESENTATION('material name',(#310),#542);
#309=REPRESENTATION('density',(#305),#542);
#310=DESCRIPTIVE_REPRESENTATION_ITEM('304L Stainless Steel',
'304L Stainless Steel');
#311=PROPERTY_DEFINITION('material property','material name',#552);
#312=PROPERTY_DEFINITION('material property','density of part',#552);
#313=AXIS2_PLACEMENT_3D('placement',#459,#356,#357);
#314=AXIS2_PLACEMENT_3D('',#460,#358,#359);
#315=AXIS2_PLACEMENT_3D('',#462,#360,#361);
#316=AXIS2_PLACEMENT_3D('',#465,#363,#364);
#317=AXIS2_PLACEMENT_3D('',#466,#365,#366);
#318=AXIS2_PLACEMENT_3D('',#468,#367,#368);
#319=AXIS2_PLACEMENT_3D('',#470,#370,#371);
#320=AXIS2_PLACEMENT_3D('',#472,#372,#373);
#321=AXIS2_PLACEMENT_3D('',#474,#375,#376);
#322=AXIS2_PLACEMENT_3D('',#476,#377,#378);
#323=AXIS2_PLACEMENT_3D('',#478,#380,#381);
#324=AXIS2_PLACEMENT_3D('',#480,#382,#383);
#325=AXIS2_PLACEMENT_3D('',#482,#385,#386);
#326=AXIS2_PLACEMENT_3D('',#484,#387,#388);
#327=AXIS2_PLACEMENT_3D('',#486,#390,#391);
#328=AXIS2_PLACEMENT_3D('',#488,#392,#393);
#329=AXIS2_PLACEMENT_3D('',#489,#394,#395);
#330=AXIS2_PLACEMENT_3D('',#492,#397,#398);
#331=AXIS2_PLACEMENT_3D('',#493,#399,#400);
#332=AXIS2_PLACEMENT_3D('',#496,#402,#403);
#333=AXIS2_PLACEMENT_3D('',#497,#404,#405);
#334=AXIS2_PLACEMENT_3D('',#500,#407,#408);
#335=AXIS2_PLACEMENT_3D('',#501,#409,#410);
#336=AXIS2_PLACEMENT_3D('',#504,#412,#413);
#337=AXIS2_PLACEMENT_3D('',#505,#414,#415);
#338=AXIS2_PLACEMENT_3D('',#508,#417,#418);
#339=AXIS2_PLACEMENT_3D('',#509,#419,#420);
#340=AXIS2_PLACEMENT_3D('',#512,#422,#423);
#341=AXIS2_PLACEMENT_3D('',#513,#424,#425);
#342=AXIS2_PLACEMENT_3D('',#516,#427,#428);
#343=AXIS2_PLACEMENT_3D('',#517,#429,#430);
#344=AXIS2_PLACEMENT_3D('',#520,#432,#433);
#345=AXIS2_PLACEMENT_3D('',#521,#434,#435);
#346=AXIS2_PLACEMENT_3D('',#523,#436,#437);
#347=AXIS2_PLACEMENT_3D('',#524,#438,#439);
#348=AXIS2_PLACEMENT_3D('',#526,#441,#442);
#349=AXIS2_PLACEMENT_3D('',#528,#443,#444);
#350=AXIS2_PLACEMENT_3D('',#531,#446,#447);
#351=AXIS2_PLACEMENT_3D('',#532,#448,#449);
#352=AXIS2_PLACEMENT_3D('',#534,#450,#451);
#353=AXIS2_PLACEMENT_3D('',#535,#452,#453);
#354=AXIS2_PLACEMENT_3D('',#537,#454,#455);
#355=AXIS2_PLACEMENT_3D('',#539,#457,#458);
#356=DIRECTION('axis',(0.,0.,1.));
#357=DIRECTION('refdir',(1.,0.,0.));
#358=DIRECTION('center_axis',(0.,-1.,0.));
#359=DIRECTION('ref_axis',(1.,0.,0.));
#360=DIRECTION('center_axis',(0.,-1.,0.));
#361=DIRECTION('ref_axis',(1.,0.,0.));
#362=DIRECTION('',(0.,1.,0.));
#363=DIRECTION('center_axis',(0.,-1.,0.));
#364=DIRECTION('ref_axis',(1.,0.,0.));
#365=DIRECTION('center_axis',(0.,1.,0.));
#366=DIRECTION('ref_axis',(1.,0.,0.));
#367=DIRECTION('center_axis',(0.,-1.,0.));
#368=DIRECTION('ref_axis',(1.,0.,0.));
#369=DIRECTION('',(-0.707367618427046,0.70684584769301,-8.66275489727168E-17));
#370=DIRECTION('center_axis',(0.,-1.,0.));
#371=DIRECTION('ref_axis',(1.,0.,0.));
#372=DIRECTION('center_axis',(0.,-1.,0.));
#373=DIRECTION('ref_axis',(1.,0.,0.));
#374=DIRECTION('',(0.,1.,0.));
#375=DIRECTION('center_axis',(0.,-1.,0.));
#376=DIRECTION('ref_axis',(1.,0.,0.));
#377=DIRECTION('center_axis',(0.,-1.,0.));
#378=DIRECTION('ref_axis',(1.,0.,0.));
#379=DIRECTION('',(0.706845847693024,0.707367618427031,8.6563650486786E-17));
#380=DIRECTION('center_axis',(0.,1.,0.));
#381=DIRECTION('ref_axis',(1.,0.,0.));
#382=DIRECTION('center_axis',(0.,-1.,0.));
#383=DIRECTION('ref_axis',(1.,0.,0.));
#384=DIRECTION('',(-0.00200268348063897,0.999997994627428,-2.4525799142698E-19));
#385=DIRECTION('center_axis',(0.,1.,0.));
#386=DIRECTION('ref_axis',(1.,0.,0.));
#387=DIRECTION('center_axis',(0.,-1.,0.));
#388=DIRECTION('ref_axis',(1.,0.,0.));
#389=DIRECTION('',(-0.707367618427033,0.706845847693022,-8.66275489727153E-17));
#390=DIRECTION('center_axis',(0.,-1.,0.));
#391=DIRECTION('ref_axis',(0.,0.,-1.));
#392=DIRECTION('center_axis',(0.,-1.,0.));
#393=DIRECTION('ref_axis',(1.,0.,0.));
#394=DIRECTION('center_axis',(0.,-1.,0.));
#395=DIRECTION('ref_axis',(1.,0.,0.));
#396=DIRECTION('',(0.998629534754574,0.052335956242952,1.2229684632712E-16));
#397=DIRECTION('center_axis',(0.,-1.,0.));
#398=DIRECTION('ref_axis',(1.,0.,0.));
#399=DIRECTION('center_axis',(0.,1.,0.));
#400=DIRECTION('ref_axis',(1.,0.,0.));
#401=DIRECTION('',(-0.904601943373692,0.426257344857001,-1.10781787445507E-16));
#402=DIRECTION('center_axis',(0.,-1.,0.));
#403=DIRECTION('ref_axis',(1.,0.,0.));
#404=DIRECTION('center_axis',(0.,-1.,0.));
#405=DIRECTION('ref_axis',(1.,0.,0.));
#406=DIRECTION('',(0.,1.,0.));
#407=DIRECTION('center_axis',(0.,-1.,0.));
#408=DIRECTION('ref_axis',(1.,0.,0.));
#409=DIRECTION('center_axis',(0.,-1.,0.));
#410=DIRECTION('ref_axis',(1.,0.,0.));
#411=DIRECTION('',(0.706845847692982,0.707367618427074,8.65636504867808E-17));
#412=DIRECTION('center_axis',(0.,-1.,0.));
#413=DIRECTION('ref_axis',(1.,0.,0.));
#414=DIRECTION('center_axis',(0.,-1.,0.));
#415=DIRECTION('ref_axis',(1.,0.,0.));
#416=DIRECTION('',(0.,1.,0.));
#417=DIRECTION('center_axis',(0.,-1.,0.));
#418=DIRECTION('ref_axis',(1.,0.,0.));
#419=DIRECTION('center_axis',(0.,1.,0.));
#420=DIRECTION('ref_axis',(1.,0.,0.));
#421=DIRECTION('',(-0.707367618427045,0.70684584769301,-8.66275489727167E-17));
#422=DIRECTION('center_axis',(0.,-1.,0.));
#423=DIRECTION('ref_axis',(1.,0.,0.));
#424=DIRECTION('center_axis',(0.,-1.,0.));
#425=DIRECTION('ref_axis',(1.,0.,0.));
#426=DIRECTION('',(0.,1.,0.));
#427=DIRECTION('center_axis',(0.,-1.,0.));
#428=DIRECTION('ref_axis',(1.,0.,0.));
#429=DIRECTION('center_axis',(0.,-1.,0.));
#430=DIRECTION('ref_axis',(1.,0.,0.));
#431=DIRECTION('',(0.705380899368594,0.708828460775915,8.6384246059143E-17));
#432=DIRECTION('center_axis',(0.,-1.,0.));
#433=DIRECTION('ref_axis',(1.,0.,0.));
#434=DIRECTION('center_axis',(0.,1.,0.));
#435=DIRECTION('ref_axis',(0.,0.,1.));
#436=DIRECTION('center_axis',(0.,-1.,0.));
#437=DIRECTION('ref_axis',(1.,0.,0.));
#438=DIRECTION('center_axis',(0.,-1.,0.));
#439=DIRECTION('ref_axis',(1.,0.,0.));
#440=DIRECTION('',(0.706845847693013,0.707367618427043,8.65636504867846E-17));
#441=DIRECTION('center_axis',(0.,1.,0.));
#442=DIRECTION('ref_axis',(1.,0.,0.));
#443=DIRECTION('center_axis',(0.,-1.,0.));
#444=DIRECTION('ref_axis',(1.,0.,0.));
#445=DIRECTION('',(-0.0523359562429522,0.998629534754573,-6.40930612932473E-18));
#446=DIRECTION('center_axis',(0.,-1.,0.));
#447=DIRECTION('ref_axis',(1.,0.,0.));
#448=DIRECTION('center_axis',(0.,1.,0.));
#449=DIRECTION('ref_axis',(0.,0.,1.));
#450=DIRECTION('center_axis',(0.,-1.,0.));
#451=DIRECTION('ref_axis',(1.,0.,0.));
#452=DIRECTION('center_axis',(0.,1.,0.));
#453=DIRECTION('ref_axis',(1.,0.,0.));
#454=DIRECTION('center_axis',(0.,-1.,0.));
#455=DIRECTION('ref_axis',(1.,0.,0.));
#456=DIRECTION('',(-0.0522834956446974,0.998632282716301,-6.40288155895132E-18));
#457=DIRECTION('center_axis',(0.,-1.,0.));
#458=DIRECTION('ref_axis',(0.,0.,-1.));
#459=CARTESIAN_POINT('',(0.,0.,0.));
#460=CARTESIAN_POINT('Origin',(0.,81.3977299607824,0.));
#461=CARTESIAN_POINT('',(-563.000000000001,78.0661876201801,-6.89476147919961E-14));
#462=CARTESIAN_POINT('Origin',(0.,78.0661876201801,0.));
#463=CARTESIAN_POINT('',(-563.000000000001,84.7292723013846,-6.89476147919961E-14));
#464=CARTESIAN_POINT('',(-563.000000000001,81.3977299607824,-6.89476147919961E-14));
#465=CARTESIAN_POINT('Origin',(0.,84.7292723013846,0.));
#466=CARTESIAN_POINT('Origin',(0.,75.942853243739,0.));
#467=CARTESIAN_POINT('',(-558.75019649365,73.8195188672978,-6.84271639658904E-14));
#468=CARTESIAN_POINT('Origin',(0.,73.8195188672978,0.));
#469=CARTESIAN_POINT('',(-560.875098246826,75.942853243739,-6.86873893789432E-14));
#470=CARTESIAN_POINT('Origin',(0.,70.4879357759349,0.));
#471=CARTESIAN_POINT('',(-558.75019649365,67.156352684572,-6.84271639658903E-14));
#472=CARTESIAN_POINT('Origin',(0.,67.156352684572,0.));
#473=CARTESIAN_POINT('',(-558.75019649365,70.4879357759349,-6.84271639658903E-14));
#474=CARTESIAN_POINT('Origin',(0.,65.0298823976761,0.));
#475=CARTESIAN_POINT('',(-563.000000000001,62.9034121107802,-6.89476147919961E-14));
#476=CARTESIAN_POINT('Origin',(0.,62.9034121107802,0.));
#477=CARTESIAN_POINT('',(-560.875098246825,65.0298823976761,-6.86873893789432E-14));
#478=CARTESIAN_POINT('Origin',(0.,59.5682895484376,0.));
#479=CARTESIAN_POINT('',(-562.986641583489,56.233166986095,-6.89459788577938E-14));
#480=CARTESIAN_POINT('Origin',(0.,56.233166986095,0.));
#481=CARTESIAN_POINT('',(-562.993320791745,59.5682895484376,-6.89467968248949E-14));
#482=CARTESIAN_POINT('Origin',(0.,54.1165068911708,0.));
#483=CARTESIAN_POINT('',(-558.75019649365,51.9998467962466,-6.84271639658903E-14));
#484=CARTESIAN_POINT('Origin',(0.,51.9998467962466,0.));
#485=CARTESIAN_POINT('',(-560.86841903857,54.1165068911708,-6.86865714118421E-14));
#486=CARTESIAN_POINT('Origin',(554.72519649365,51.9998467962466,0.));
#487=CARTESIAN_POINT('',(-554.72519649365,51.9998467962467,-6.79342436292335E-14));
#488=CARTESIAN_POINT('Origin',(0.,51.9998467962467,0.));
#489=CARTESIAN_POINT('Origin',(0.,52.0521827524896,0.));
#490=CARTESIAN_POINT('',(-552.727937424141,52.1045187087326,-6.76896499365793E-14));
#491=CARTESIAN_POINT('',(-553.726566958896,52.0521827524896,-6.78119467829064E-14));
#492=CARTESIAN_POINT('Origin',(0.,52.1045187087326,0.));
#493=CARTESIAN_POINT('Origin',(0.,54.0534573860732,0.));
#494=CARTESIAN_POINT('',(-561.000000000001,56.0023960634138,-6.87026854321666E-14));
#495=CARTESIAN_POINT('',(-556.863968712071,54.0534573860732,-6.81961676843729E-14));
#496=CARTESIAN_POINT('Origin',(0.,56.0023960634138,0.));
#497=CARTESIAN_POINT('Origin',(0.,59.4529040870967,0.));
#498=CARTESIAN_POINT('',(-561.000000000001,62.9034121107797,-6.87026854321666E-14));
#499=CARTESIAN_POINT('',(-561.000000000001,59.4529040870967,-6.87026854321666E-14));
#500=CARTESIAN_POINT('Origin',(0.,62.9034121107797,0.));
#501=CARTESIAN_POINT('Origin',(0.,65.0298823976758,0.));
#502=CARTESIAN_POINT('',(-556.75019649365,67.156352684572,-6.81822346060609E-14));
#503=CARTESIAN_POINT('',(-558.875098246825,65.0298823976758,-6.84424600191137E-14));
#504=CARTESIAN_POINT('Origin',(0.,67.156352684572,0.));
#505=CARTESIAN_POINT('Origin',(0.,70.4879357759349,0.));
#506=CARTESIAN_POINT('',(-556.75019649365,73.8195188672978,-6.81822346060609E-14));
#507=CARTESIAN_POINT('',(-556.75019649365,70.4879357759349,-6.81822346060609E-14));
#508=CARTESIAN_POINT('Origin',(0.,73.8195188672978,0.));
#509=CARTESIAN_POINT('Origin',(0.,75.942853243739,0.));
#510=CARTESIAN_POINT('',(-561.,78.0661876201801,-6.87026854321666E-14));
#511=CARTESIAN_POINT('',(-558.875098246825,75.942853243739,-6.84424600191137E-14));
#512=CARTESIAN_POINT('Origin',(0.,78.0661876201802,0.));
#513=CARTESIAN_POINT('Origin',(0.,81.3977299607824,0.));
#514=CARTESIAN_POINT('',(-561.000000000001,84.7292723013846,-6.87026854321666E-14));
#515=CARTESIAN_POINT('',(-561.000000000001,81.3977299607824,-6.87026854321666E-14));
#516=CARTESIAN_POINT('Origin',(0.,84.7292723013846,0.));
#517=CARTESIAN_POINT('Origin',(0.,86.8645595488156,0.));
#518=CARTESIAN_POINT('',(-556.75019649365,88.9998467962467,-6.81822346060609E-14));
#519=CARTESIAN_POINT('',(-558.875098246825,86.8645595488156,-6.84424600191137E-14));
#520=CARTESIAN_POINT('Origin',(0.,88.9998467962467,0.));
#521=CARTESIAN_POINT('Origin',(558.732575579769,88.9998467962467,0.));
#522=CARTESIAN_POINT('',(-558.732575579769,88.9998467962465,-6.84250060263121E-14));
#523=CARTESIAN_POINT('Origin',(0.,88.9998467962467,0.));
#524=CARTESIAN_POINT('Origin',(0.,86.8645595488155,0.));
#525=CARTESIAN_POINT('',(-560.866287789885,86.8645595488155,-6.86863104091541E-14));
#526=CARTESIAN_POINT('Origin',(0.,25.9999233981233,0.));
#527=CARTESIAN_POINT('',(-552.,-4.44089209850063E-15,-6.76005033129339E-14));
#528=CARTESIAN_POINT('Origin',(0.,0.,0.));
#529=CARTESIAN_POINT('',(-554.72519649365,51.9998467962467,-6.79342436292335E-14));
#530=CARTESIAN_POINT('',(-553.362598246825,25.9999233981233,-6.77673734710837E-14));
#531=CARTESIAN_POINT('Origin',(0.,51.9998467962467,0.));
#532=CARTESIAN_POINT('Origin',(554.72519649365,51.9998467962466,0.));
#533=CARTESIAN_POINT('',(-552.722457315421,51.9998467962467,-6.7688978816819E-14));
#534=CARTESIAN_POINT('Origin',(0.,51.9998467962467,0.));
#535=CARTESIAN_POINT('Origin',(0.,25.9999233981233,0.));
#536=CARTESIAN_POINT('',(-550.,-4.44089209850063E-15,-6.73555739531044E-14));
#537=CARTESIAN_POINT('Origin',(0.,0.,0.));
#538=CARTESIAN_POINT('',(-551.36122865771,25.9999233981233,-6.75222763849617E-14));
#539=CARTESIAN_POINT('Origin',(550.,-1.95164461387001E-30,0.));
#540=UNCERTAINTY_MEASURE_WITH_UNIT(LENGTH_MEASURE(0.01),#544,
'DISTANCE_ACCURACY_VALUE',
'Maximum model space distance between geometric entities at asserted c
onnectivities');
#541=UNCERTAINTY_MEASURE_WITH_UNIT(LENGTH_MEASURE(0.01),#544,
'DISTANCE_ACCURACY_VALUE',
'Maximum model space distance between geometric entities at asserted c
onnectivities');
#542=(
GEOMETRIC_REPRESENTATION_CONTEXT(3)
GLOBAL_UNCERTAINTY_ASSIGNED_CONTEXT((#540))
GLOBAL_UNIT_ASSIGNED_CONTEXT((#544,#546,#547))
REPRESENTATION_CONTEXT('','3D')
);
#543=(
GEOMETRIC_REPRESENTATION_CONTEXT(3)
GLOBAL_UNCERTAINTY_ASSIGNED_CONTEXT((#541))
GLOBAL_UNIT_ASSIGNED_CONTEXT((#544,#546,#547))
REPRESENTATION_CONTEXT('','3D')
);
#544=(
LENGTH_UNIT()
NAMED_UNIT(*)
SI_UNIT(.MILLI.,.METRE.)
);
#545=(
LENGTH_UNIT()
NAMED_UNIT(*)
SI_UNIT($,.METRE.)
);
#546=(
NAMED_UNIT(*)
PLANE_ANGLE_UNIT()
SI_UNIT($,.RADIAN.)
);
#547=(
NAMED_UNIT(*)
SI_UNIT($,.STERADIAN.)
SOLID_ANGLE_UNIT()
);
#548=SHAPE_DEFINITION_REPRESENTATION(#549,#550);
#549=PRODUCT_DEFINITION_SHAPE('',$,#552);
#550=SHAPE_REPRESENTATION('',(#313),#542);
#551=PRODUCT_DEFINITION_CONTEXT('part definition',#556,'design');
#552=PRODUCT_DEFINITION('BFM Spigot 1100mm','BFM Spigot 1100mm v1',#553,
#551);
#553=PRODUCT_DEFINITION_FORMATION('',$,#558);
#554=PRODUCT_RELATED_PRODUCT_CATEGORY('BFM Spigot 1100mm v1',
'BFM Spigot 1100mm v1',(#558));
#555=APPLICATION_PROTOCOL_DEFINITION('international standard',
'automotive_design',2009,#556);
#556=APPLICATION_CONTEXT(
'Core Data for Automotive Mechanical Design Process');
#557=PRODUCT_CONTEXT('part definition',#556,'mechanical');
#558=PRODUCT('BFM Spigot 1100mm','BFM Spigot 1100mm v1',$,(#557));
#559=PRESENTATION_STYLE_ASSIGNMENT((#560));
#560=SURFACE_STYLE_USAGE(.BOTH.,#561);
#561=SURFACE_SIDE_STYLE('',(#562));
#562=SURFACE_STYLE_FILL_AREA(#563);
#563=FILL_AREA_STYLE('Steel - Satin',(#564));
#564=FILL_AREA_STYLE_COLOUR('Steel - Satin',#565);
#565=COLOUR_RGB('Steel - Satin',0.627450980392157,0.627450980392157,0.627450980392157);
ENDSEC;
END-ISO-10303-21;
