ISO-10303-21;
HEADER;
/* Generated by software containing ST-Developer
 * from STEP Tools, Inc. (www.steptools.com) 
 */

FILE_DESCRIPTION(
/* description */ (''),
/* implementation_level */ '2;1');

FILE_NAME(
/* name */ 
'M:/Public/Photos, Drawings, Video/CAD Drawings/BFM Drawings/Standard 
BFM Connectors & Spigots/.STP Files/Spigots/BFM Spigot 1150mm v2.step',

/* time_stamp */ '2020-07-29T08:11:31+12:00',
/* author */ (''),
/* organization */ (''),
/* preprocessor_version */ 'ST-DEVELOPER v18.1',
/* originating_system */ 'Autodesk Translation Framework v9.3.0.1241',
/* authorisation */ '');

FILE_SCHEMA (('AUTOMOTIVE_DESIGN { 1 0 10303 214 3 1 1 }'));
ENDSEC;

DATA;
#10=MECHANICAL_DESIGN_GEOMETRIC_PRESENTATION_REPRESENTATION('',(#13,#14),
#543);
#11=SHAPE_REPRESENTATION_RELATIONSHIP('SRR','None',#550,#12);
#12=ADVANCED_BREP_SHAPE_REPRESENTATION('',(#15,#16),#542);
#13=STYLED_ITEM('',(#559),#15);
#14=STYLED_ITEM('',(#559),#16);
#15=MANIFOLD_SOLID_BREP('Body5',#299);
#16=MANIFOLD_SOLID_BREP('Body5',#300);
#17=FACE_BOUND('',#57,.T.);
#18=FACE_BOUND('',#67,.T.);
#19=FACE_BOUND('',#72,.T.);
#20=FACE_BOUND('',#75,.T.);
#21=PLANE('',#325);
#22=PLANE('',#343);
#23=PLANE('',#351);
#24=PLANE('',#355);
#25=CYLINDRICAL_SURFACE('',#317,583.75019649365);
#26=CYLINDRICAL_SURFACE('',#331,586.);
#27=CYLINDRICAL_SURFACE('',#335,581.75019649365);
#28=CYLINDRICAL_SURFACE('',#339,586.);
#29=CYLINDRICAL_SURFACE('',#347,588.000000000001);
#30=FACE_OUTER_BOUND('',#51,.T.);
#31=FACE_OUTER_BOUND('',#52,.T.);
#32=FACE_OUTER_BOUND('',#53,.T.);
#33=FACE_OUTER_BOUND('',#54,.T.);
#34=FACE_OUTER_BOUND('',#55,.T.);
#35=FACE_OUTER_BOUND('',#56,.T.);
#36=FACE_OUTER_BOUND('',#58,.T.);
#37=FACE_OUTER_BOUND('',#59,.T.);
#38=FACE_OUTER_BOUND('',#60,.T.);
#39=FACE_OUTER_BOUND('',#61,.T.);
#40=FACE_OUTER_BOUND('',#62,.T.);
#41=FACE_OUTER_BOUND('',#63,.T.);
#42=FACE_OUTER_BOUND('',#64,.T.);
#43=FACE_OUTER_BOUND('',#65,.T.);
#44=FACE_OUTER_BOUND('',#66,.T.);
#45=FACE_OUTER_BOUND('',#68,.T.);
#46=FACE_OUTER_BOUND('',#69,.T.);
#47=FACE_OUTER_BOUND('',#70,.T.);
#48=FACE_OUTER_BOUND('',#71,.T.);
#49=FACE_OUTER_BOUND('',#73,.T.);
#50=FACE_OUTER_BOUND('',#74,.T.);
#51=EDGE_LOOP('',(#190,#191,#192,#193));
#52=EDGE_LOOP('',(#194,#195,#196,#197));
#53=EDGE_LOOP('',(#198,#199,#200,#201));
#54=EDGE_LOOP('',(#202,#203,#204,#205));
#55=EDGE_LOOP('',(#206,#207,#208,#209));
#56=EDGE_LOOP('',(#210));
#57=EDGE_LOOP('',(#211));
#58=EDGE_LOOP('',(#212,#213,#214,#215));
#59=EDGE_LOOP('',(#216,#217,#218,#219));
#60=EDGE_LOOP('',(#220,#221,#222,#223));
#61=EDGE_LOOP('',(#224,#225,#226,#227));
#62=EDGE_LOOP('',(#228,#229,#230,#231));
#63=EDGE_LOOP('',(#232,#233,#234,#235));
#64=EDGE_LOOP('',(#236,#237,#238,#239));
#65=EDGE_LOOP('',(#240,#241,#242,#243));
#66=EDGE_LOOP('',(#244));
#67=EDGE_LOOP('',(#245));
#68=EDGE_LOOP('',(#246,#247,#248,#249));
#69=EDGE_LOOP('',(#250,#251,#252,#253));
#70=EDGE_LOOP('',(#254,#255,#256,#257));
#71=EDGE_LOOP('',(#258));
#72=EDGE_LOOP('',(#259));
#73=EDGE_LOOP('',(#260,#261,#262,#263));
#74=EDGE_LOOP('',(#264));
#75=EDGE_LOOP('',(#265));
#76=LINE('',#464,#93);
#77=LINE('',#469,#94);
#78=LINE('',#473,#95);
#79=LINE('',#477,#96);
#80=LINE('',#481,#97);
#81=LINE('',#487,#98);
#82=LINE('',#491,#99);
#83=LINE('',#495,#100);
#84=LINE('',#499,#101);
#85=LINE('',#503,#102);
#86=LINE('',#507,#103);
#87=LINE('',#511,#104);
#88=LINE('',#515,#105);
#89=LINE('',#523,#106);
#90=LINE('',#525,#107);
#91=LINE('',#530,#108);
#92=LINE('',#538,#109);
#93=VECTOR('',#362,585.875098246825);
#94=VECTOR('',#369,583.75019649365);
#95=VECTOR('',#374,585.875098246825);
#96=VECTOR('',#379,587.993320791745);
#97=VECTOR('',#384,585.868419038569);
#98=VECTOR('',#391,578.726566958895);
#99=VECTOR('',#396,581.863968712071);
#100=VECTOR('',#401,586.);
#101=VECTOR('',#406,583.875098246825);
#102=VECTOR('',#411,581.75019649365);
#103=VECTOR('',#416,583.875098246825);
#104=VECTOR('',#421,586.);
#105=VECTOR('',#426,583.875098246825);
#106=VECTOR('',#437,585.866287789884);
#107=VECTOR('',#440,588.000000000001);
#108=VECTOR('',#445,578.362598246825);
#109=VECTOR('',#456,576.361228657711);
#110=CIRCLE('',#315,583.75019649365);
#111=CIRCLE('',#316,588.000000000001);
#112=CIRCLE('',#318,583.75019649365);
#113=CIRCLE('',#320,588.);
#114=CIRCLE('',#322,587.986641583489);
#115=CIRCLE('',#324,583.75019649365);
#116=CIRCLE('',#326,579.72519649365);
#117=CIRCLE('',#328,577.727937424141);
#118=CIRCLE('',#330,586.);
#119=CIRCLE('',#332,586.);
#120=CIRCLE('',#334,581.75019649365);
#121=CIRCLE('',#336,581.75019649365);
#122=CIRCLE('',#338,586.);
#123=CIRCLE('',#340,586.);
#124=CIRCLE('',#342,581.75019649365);
#125=CIRCLE('',#344,583.732575579769);
#126=CIRCLE('',#346,588.000000000001);
#127=CIRCLE('',#349,577.);
#128=CIRCLE('',#350,579.72519649365);
#129=CIRCLE('',#352,577.722457315421);
#130=CIRCLE('',#354,575.);
#131=VERTEX_POINT('',#461);
#132=VERTEX_POINT('',#463);
#133=VERTEX_POINT('',#467);
#134=VERTEX_POINT('',#471);
#135=VERTEX_POINT('',#475);
#136=VERTEX_POINT('',#479);
#137=VERTEX_POINT('',#483);
#138=VERTEX_POINT('',#486);
#139=VERTEX_POINT('',#490);
#140=VERTEX_POINT('',#494);
#141=VERTEX_POINT('',#498);
#142=VERTEX_POINT('',#502);
#143=VERTEX_POINT('',#506);
#144=VERTEX_POINT('',#510);
#145=VERTEX_POINT('',#514);
#146=VERTEX_POINT('',#518);
#147=VERTEX_POINT('',#521);
#148=VERTEX_POINT('',#527);
#149=VERTEX_POINT('',#529);
#150=VERTEX_POINT('',#533);
#151=VERTEX_POINT('',#536);
#152=EDGE_CURVE('',#131,#131,#110,.T.);
#153=EDGE_CURVE('',#131,#132,#76,.T.);
#154=EDGE_CURVE('',#132,#132,#111,.T.);
#155=EDGE_CURVE('',#133,#133,#112,.T.);
#156=EDGE_CURVE('',#133,#131,#77,.T.);
#157=EDGE_CURVE('',#134,#134,#113,.T.);
#158=EDGE_CURVE('',#134,#133,#78,.T.);
#159=EDGE_CURVE('',#135,#135,#114,.T.);
#160=EDGE_CURVE('',#135,#134,#79,.T.);
#161=EDGE_CURVE('',#136,#136,#115,.T.);
#162=EDGE_CURVE('',#136,#135,#80,.T.);
#163=EDGE_CURVE('',#137,#137,#116,.T.);
#164=EDGE_CURVE('',#137,#138,#81,.T.);
#165=EDGE_CURVE('',#138,#138,#117,.T.);
#166=EDGE_CURVE('',#138,#139,#82,.T.);
#167=EDGE_CURVE('',#139,#139,#118,.T.);
#168=EDGE_CURVE('',#139,#140,#83,.T.);
#169=EDGE_CURVE('',#140,#140,#119,.T.);
#170=EDGE_CURVE('',#140,#141,#84,.T.);
#171=EDGE_CURVE('',#141,#141,#120,.T.);
#172=EDGE_CURVE('',#141,#142,#85,.T.);
#173=EDGE_CURVE('',#142,#142,#121,.T.);
#174=EDGE_CURVE('',#142,#143,#86,.T.);
#175=EDGE_CURVE('',#143,#143,#122,.T.);
#176=EDGE_CURVE('',#143,#144,#87,.T.);
#177=EDGE_CURVE('',#144,#144,#123,.T.);
#178=EDGE_CURVE('',#144,#145,#88,.T.);
#179=EDGE_CURVE('',#145,#145,#124,.T.);
#180=EDGE_CURVE('',#146,#146,#125,.T.);
#181=EDGE_CURVE('',#147,#147,#126,.T.);
#182=EDGE_CURVE('',#147,#146,#89,.T.);
#183=EDGE_CURVE('',#132,#147,#90,.T.);
#184=EDGE_CURVE('',#148,#148,#127,.T.);
#185=EDGE_CURVE('',#148,#149,#91,.T.);
#186=EDGE_CURVE('',#149,#149,#128,.T.);
#187=EDGE_CURVE('',#150,#150,#129,.T.);
#188=EDGE_CURVE('',#151,#151,#130,.T.);
#189=EDGE_CURVE('',#151,#150,#92,.T.);
#190=ORIENTED_EDGE('',*,*,#152,.F.);
#191=ORIENTED_EDGE('',*,*,#153,.T.);
#192=ORIENTED_EDGE('',*,*,#154,.T.);
#193=ORIENTED_EDGE('',*,*,#153,.F.);
#194=ORIENTED_EDGE('',*,*,#155,.F.);
#195=ORIENTED_EDGE('',*,*,#156,.T.);
#196=ORIENTED_EDGE('',*,*,#152,.T.);
#197=ORIENTED_EDGE('',*,*,#156,.F.);
#198=ORIENTED_EDGE('',*,*,#157,.F.);
#199=ORIENTED_EDGE('',*,*,#158,.T.);
#200=ORIENTED_EDGE('',*,*,#155,.T.);
#201=ORIENTED_EDGE('',*,*,#158,.F.);
#202=ORIENTED_EDGE('',*,*,#159,.F.);
#203=ORIENTED_EDGE('',*,*,#160,.T.);
#204=ORIENTED_EDGE('',*,*,#157,.T.);
#205=ORIENTED_EDGE('',*,*,#160,.F.);
#206=ORIENTED_EDGE('',*,*,#161,.F.);
#207=ORIENTED_EDGE('',*,*,#162,.T.);
#208=ORIENTED_EDGE('',*,*,#159,.T.);
#209=ORIENTED_EDGE('',*,*,#162,.F.);
#210=ORIENTED_EDGE('',*,*,#161,.T.);
#211=ORIENTED_EDGE('',*,*,#163,.F.);
#212=ORIENTED_EDGE('',*,*,#163,.T.);
#213=ORIENTED_EDGE('',*,*,#164,.T.);
#214=ORIENTED_EDGE('',*,*,#165,.F.);
#215=ORIENTED_EDGE('',*,*,#164,.F.);
#216=ORIENTED_EDGE('',*,*,#165,.T.);
#217=ORIENTED_EDGE('',*,*,#166,.T.);
#218=ORIENTED_EDGE('',*,*,#167,.F.);
#219=ORIENTED_EDGE('',*,*,#166,.F.);
#220=ORIENTED_EDGE('',*,*,#167,.T.);
#221=ORIENTED_EDGE('',*,*,#168,.T.);
#222=ORIENTED_EDGE('',*,*,#169,.F.);
#223=ORIENTED_EDGE('',*,*,#168,.F.);
#224=ORIENTED_EDGE('',*,*,#169,.T.);
#225=ORIENTED_EDGE('',*,*,#170,.T.);
#226=ORIENTED_EDGE('',*,*,#171,.F.);
#227=ORIENTED_EDGE('',*,*,#170,.F.);
#228=ORIENTED_EDGE('',*,*,#171,.T.);
#229=ORIENTED_EDGE('',*,*,#172,.T.);
#230=ORIENTED_EDGE('',*,*,#173,.F.);
#231=ORIENTED_EDGE('',*,*,#172,.F.);
#232=ORIENTED_EDGE('',*,*,#173,.T.);
#233=ORIENTED_EDGE('',*,*,#174,.T.);
#234=ORIENTED_EDGE('',*,*,#175,.F.);
#235=ORIENTED_EDGE('',*,*,#174,.F.);
#236=ORIENTED_EDGE('',*,*,#175,.T.);
#237=ORIENTED_EDGE('',*,*,#176,.T.);
#238=ORIENTED_EDGE('',*,*,#177,.F.);
#239=ORIENTED_EDGE('',*,*,#176,.F.);
#240=ORIENTED_EDGE('',*,*,#177,.T.);
#241=ORIENTED_EDGE('',*,*,#178,.T.);
#242=ORIENTED_EDGE('',*,*,#179,.F.);
#243=ORIENTED_EDGE('',*,*,#178,.F.);
#244=ORIENTED_EDGE('',*,*,#180,.F.);
#245=ORIENTED_EDGE('',*,*,#179,.T.);
#246=ORIENTED_EDGE('',*,*,#181,.F.);
#247=ORIENTED_EDGE('',*,*,#182,.T.);
#248=ORIENTED_EDGE('',*,*,#180,.T.);
#249=ORIENTED_EDGE('',*,*,#182,.F.);
#250=ORIENTED_EDGE('',*,*,#154,.F.);
#251=ORIENTED_EDGE('',*,*,#183,.T.);
#252=ORIENTED_EDGE('',*,*,#181,.T.);
#253=ORIENTED_EDGE('',*,*,#183,.F.);
#254=ORIENTED_EDGE('',*,*,#184,.F.);
#255=ORIENTED_EDGE('',*,*,#185,.T.);
#256=ORIENTED_EDGE('',*,*,#186,.T.);
#257=ORIENTED_EDGE('',*,*,#185,.F.);
#258=ORIENTED_EDGE('',*,*,#186,.F.);
#259=ORIENTED_EDGE('',*,*,#187,.T.);
#260=ORIENTED_EDGE('',*,*,#188,.T.);
#261=ORIENTED_EDGE('',*,*,#189,.T.);
#262=ORIENTED_EDGE('',*,*,#187,.F.);
#263=ORIENTED_EDGE('',*,*,#189,.F.);
#264=ORIENTED_EDGE('',*,*,#184,.T.);
#265=ORIENTED_EDGE('',*,*,#188,.F.);
#266=CONICAL_SURFACE('',#314,585.875098246825,0.785767111030082);
#267=CONICAL_SURFACE('',#319,585.875098246825,0.785029215764838);
#268=CONICAL_SURFACE('',#321,587.993320791745,0.00200268481934889);
#269=CONICAL_SURFACE('',#323,585.868419038569,0.785767111030058);
#270=CONICAL_SURFACE('',#327,578.726566958895,1.51843644923506);
#271=CONICAL_SURFACE('',#329,581.863968712071,1.13044495292682);
#272=CONICAL_SURFACE('',#333,583.875098246825,0.785029215764777);
#273=CONICAL_SURFACE('',#337,583.875098246825,0.785767111030066);
#274=CONICAL_SURFACE('',#341,583.875098246825,0.782960366933207);
#275=CONICAL_SURFACE('',#345,585.866287789885,0.785029215764838);
#276=CONICAL_SURFACE('',#348,578.362598246825,0.0523598775598355);
#277=CONICAL_SURFACE('',#353,576.36122865771,0.0523073450397785);
#278=ADVANCED_FACE('',(#30),#266,.T.);
#279=ADVANCED_FACE('',(#31),#25,.T.);
#280=ADVANCED_FACE('',(#32),#267,.T.);
#281=ADVANCED_FACE('',(#33),#268,.T.);
#282=ADVANCED_FACE('',(#34),#269,.T.);
#283=ADVANCED_FACE('',(#35,#17),#21,.T.);
#284=ADVANCED_FACE('',(#36),#270,.F.);
#285=ADVANCED_FACE('',(#37),#271,.F.);
#286=ADVANCED_FACE('',(#38),#26,.F.);
#287=ADVANCED_FACE('',(#39),#272,.F.);
#288=ADVANCED_FACE('',(#40),#27,.F.);
#289=ADVANCED_FACE('',(#41),#273,.F.);
#290=ADVANCED_FACE('',(#42),#28,.F.);
#291=ADVANCED_FACE('',(#43),#274,.F.);
#292=ADVANCED_FACE('',(#44,#18),#22,.T.);
#293=ADVANCED_FACE('',(#45),#275,.T.);
#294=ADVANCED_FACE('',(#46),#29,.T.);
#295=ADVANCED_FACE('',(#47),#276,.T.);
#296=ADVANCED_FACE('',(#48,#19),#23,.T.);
#297=ADVANCED_FACE('',(#49),#277,.F.);
#298=ADVANCED_FACE('',(#50,#20),#24,.T.);
#299=CLOSED_SHELL('',(#278,#279,#280,#281,#282,#283,#284,#285,#286,#287,
#288,#289,#290,#291,#292,#293,#294));
#300=CLOSED_SHELL('',(#295,#296,#297,#298));
#301=DERIVED_UNIT_ELEMENT(#303,1.);
#302=DERIVED_UNIT_ELEMENT(#545,3.);
#303=(
MASS_UNIT()
NAMED_UNIT(*)
SI_UNIT(.KILO.,.GRAM.)
);
#304=DERIVED_UNIT((#301,#302));
#305=MEASURE_REPRESENTATION_ITEM('density measure',
POSITIVE_RATIO_MEASURE(8080.),#304);
#306=PROPERTY_DEFINITION_REPRESENTATION(#311,#308);
#307=PROPERTY_DEFINITION_REPRESENTATION(#312,#309);
#308=REPRESENTATION('material name',(#310),#542);
#309=REPRESENTATION('density',(#305),#542);
#310=DESCRIPTIVE_REPRESENTATION_ITEM('304L Stainless Steel',
'304L Stainless Steel');
#311=PROPERTY_DEFINITION('material property','material name',#552);
#312=PROPERTY_DEFINITION('material property','density of part',#552);
#313=AXIS2_PLACEMENT_3D('placement',#459,#356,#357);
#314=AXIS2_PLACEMENT_3D('',#460,#358,#359);
#315=AXIS2_PLACEMENT_3D('',#462,#360,#361);
#316=AXIS2_PLACEMENT_3D('',#465,#363,#364);
#317=AXIS2_PLACEMENT_3D('',#466,#365,#366);
#318=AXIS2_PLACEMENT_3D('',#468,#367,#368);
#319=AXIS2_PLACEMENT_3D('',#470,#370,#371);
#320=AXIS2_PLACEMENT_3D('',#472,#372,#373);
#321=AXIS2_PLACEMENT_3D('',#474,#375,#376);
#322=AXIS2_PLACEMENT_3D('',#476,#377,#378);
#323=AXIS2_PLACEMENT_3D('',#478,#380,#381);
#324=AXIS2_PLACEMENT_3D('',#480,#382,#383);
#325=AXIS2_PLACEMENT_3D('',#482,#385,#386);
#326=AXIS2_PLACEMENT_3D('',#484,#387,#388);
#327=AXIS2_PLACEMENT_3D('',#485,#389,#390);
#328=AXIS2_PLACEMENT_3D('',#488,#392,#393);
#329=AXIS2_PLACEMENT_3D('',#489,#394,#395);
#330=AXIS2_PLACEMENT_3D('',#492,#397,#398);
#331=AXIS2_PLACEMENT_3D('',#493,#399,#400);
#332=AXIS2_PLACEMENT_3D('',#496,#402,#403);
#333=AXIS2_PLACEMENT_3D('',#497,#404,#405);
#334=AXIS2_PLACEMENT_3D('',#500,#407,#408);
#335=AXIS2_PLACEMENT_3D('',#501,#409,#410);
#336=AXIS2_PLACEMENT_3D('',#504,#412,#413);
#337=AXIS2_PLACEMENT_3D('',#505,#414,#415);
#338=AXIS2_PLACEMENT_3D('',#508,#417,#418);
#339=AXIS2_PLACEMENT_3D('',#509,#419,#420);
#340=AXIS2_PLACEMENT_3D('',#512,#422,#423);
#341=AXIS2_PLACEMENT_3D('',#513,#424,#425);
#342=AXIS2_PLACEMENT_3D('',#516,#427,#428);
#343=AXIS2_PLACEMENT_3D('',#517,#429,#430);
#344=AXIS2_PLACEMENT_3D('',#519,#431,#432);
#345=AXIS2_PLACEMENT_3D('',#520,#433,#434);
#346=AXIS2_PLACEMENT_3D('',#522,#435,#436);
#347=AXIS2_PLACEMENT_3D('',#524,#438,#439);
#348=AXIS2_PLACEMENT_3D('',#526,#441,#442);
#349=AXIS2_PLACEMENT_3D('',#528,#443,#444);
#350=AXIS2_PLACEMENT_3D('',#531,#446,#447);
#351=AXIS2_PLACEMENT_3D('',#532,#448,#449);
#352=AXIS2_PLACEMENT_3D('',#534,#450,#451);
#353=AXIS2_PLACEMENT_3D('',#535,#452,#453);
#354=AXIS2_PLACEMENT_3D('',#537,#454,#455);
#355=AXIS2_PLACEMENT_3D('',#539,#457,#458);
#356=DIRECTION('axis',(0.,0.,1.));
#357=DIRECTION('refdir',(1.,0.,0.));
#358=DIRECTION('center_axis',(0.,1.,0.));
#359=DIRECTION('ref_axis',(1.,0.,0.));
#360=DIRECTION('center_axis',(0.,-1.,0.));
#361=DIRECTION('ref_axis',(1.,0.,0.));
#362=DIRECTION('',(-0.707367618427047,0.706845847693008,-8.6627548972717E-17));
#363=DIRECTION('center_axis',(0.,-1.,0.));
#364=DIRECTION('ref_axis',(1.,0.,0.));
#365=DIRECTION('center_axis',(0.,-1.,0.));
#366=DIRECTION('ref_axis',(1.,0.,0.));
#367=DIRECTION('center_axis',(0.,-1.,0.));
#368=DIRECTION('ref_axis',(1.,0.,0.));
#369=DIRECTION('',(0.,1.,0.));
#370=DIRECTION('center_axis',(0.,-1.,0.));
#371=DIRECTION('ref_axis',(1.,0.,0.));
#372=DIRECTION('center_axis',(0.,-1.,0.));
#373=DIRECTION('ref_axis',(1.,0.,0.));
#374=DIRECTION('',(0.706845847693025,0.70736761842703,8.65636504867861E-17));
#375=DIRECTION('center_axis',(0.,1.,0.));
#376=DIRECTION('ref_axis',(1.,0.,0.));
#377=DIRECTION('center_axis',(0.,-1.,0.));
#378=DIRECTION('ref_axis',(1.,0.,0.));
#379=DIRECTION('',(-0.00200268348063897,0.999997994627428,-2.4525799142698E-19));
#380=DIRECTION('center_axis',(0.,1.,0.));
#381=DIRECTION('ref_axis',(1.,0.,0.));
#382=DIRECTION('center_axis',(0.,-1.,0.));
#383=DIRECTION('ref_axis',(1.,0.,0.));
#384=DIRECTION('',(-0.70736761842703,0.706845847693025,-8.66275489727149E-17));
#385=DIRECTION('center_axis',(0.,-1.,0.));
#386=DIRECTION('ref_axis',(0.,0.,-1.));
#387=DIRECTION('center_axis',(0.,-1.,0.));
#388=DIRECTION('ref_axis',(1.,0.,0.));
#389=DIRECTION('center_axis',(0.,-1.,0.));
#390=DIRECTION('ref_axis',(1.,0.,0.));
#391=DIRECTION('',(0.998629534754573,0.0523359562429565,1.2229684632712E-16));
#392=DIRECTION('center_axis',(0.,-1.,0.));
#393=DIRECTION('ref_axis',(1.,0.,0.));
#394=DIRECTION('center_axis',(0.,1.,0.));
#395=DIRECTION('ref_axis',(1.,0.,0.));
#396=DIRECTION('',(-0.904601943373691,0.426257344857003,-1.10781787445507E-16));
#397=DIRECTION('center_axis',(0.,-1.,0.));
#398=DIRECTION('ref_axis',(1.,0.,0.));
#399=DIRECTION('center_axis',(0.,-1.,0.));
#400=DIRECTION('ref_axis',(1.,0.,0.));
#401=DIRECTION('',(0.,1.,0.));
#402=DIRECTION('center_axis',(0.,-1.,0.));
#403=DIRECTION('ref_axis',(1.,0.,0.));
#404=DIRECTION('center_axis',(0.,-1.,0.));
#405=DIRECTION('ref_axis',(1.,0.,0.));
#406=DIRECTION('',(0.706845847692982,0.707367618427074,8.65636504867808E-17));
#407=DIRECTION('center_axis',(0.,-1.,0.));
#408=DIRECTION('ref_axis',(1.,0.,0.));
#409=DIRECTION('center_axis',(0.,-1.,0.));
#410=DIRECTION('ref_axis',(1.,0.,0.));
#411=DIRECTION('',(0.,1.,0.));
#412=DIRECTION('center_axis',(0.,-1.,0.));
#413=DIRECTION('ref_axis',(1.,0.,0.));
#414=DIRECTION('center_axis',(0.,1.,0.));
#415=DIRECTION('ref_axis',(1.,0.,0.));
#416=DIRECTION('',(-0.707367618427035,0.70684584769302,-8.66275489727155E-17));
#417=DIRECTION('center_axis',(0.,-1.,0.));
#418=DIRECTION('ref_axis',(1.,0.,0.));
#419=DIRECTION('center_axis',(0.,-1.,0.));
#420=DIRECTION('ref_axis',(1.,0.,0.));
#421=DIRECTION('',(0.,1.,0.));
#422=DIRECTION('center_axis',(0.,-1.,0.));
#423=DIRECTION('ref_axis',(1.,0.,0.));
#424=DIRECTION('center_axis',(0.,-1.,0.));
#425=DIRECTION('ref_axis',(1.,0.,0.));
#426=DIRECTION('',(0.7053808993686,0.708828460775909,8.63842460591438E-17));
#427=DIRECTION('center_axis',(0.,-1.,0.));
#428=DIRECTION('ref_axis',(1.,0.,0.));
#429=DIRECTION('center_axis',(0.,1.,0.));
#430=DIRECTION('ref_axis',(0.,0.,1.));
#431=DIRECTION('center_axis',(0.,-1.,0.));
#432=DIRECTION('ref_axis',(1.,0.,0.));
#433=DIRECTION('center_axis',(0.,-1.,0.));
#434=DIRECTION('ref_axis',(1.,0.,0.));
#435=DIRECTION('center_axis',(0.,-1.,0.));
#436=DIRECTION('ref_axis',(1.,0.,0.));
#437=DIRECTION('',(0.706845847693025,0.707367618427031,8.6563650486786E-17));
#438=DIRECTION('center_axis',(0.,-1.,0.));
#439=DIRECTION('ref_axis',(1.,0.,0.));
#440=DIRECTION('',(0.,1.,0.));
#441=DIRECTION('center_axis',(0.,1.,0.));
#442=DIRECTION('ref_axis',(1.,0.,0.));
#443=DIRECTION('center_axis',(0.,-1.,0.));
#444=DIRECTION('ref_axis',(1.,0.,0.));
#445=DIRECTION('',(-0.0523359562429495,0.998629534754574,-6.4093061293244E-18));
#446=DIRECTION('center_axis',(0.,-1.,0.));
#447=DIRECTION('ref_axis',(1.,0.,0.));
#448=DIRECTION('center_axis',(0.,1.,0.));
#449=DIRECTION('ref_axis',(0.,0.,1.));
#450=DIRECTION('center_axis',(0.,-1.,0.));
#451=DIRECTION('ref_axis',(1.,0.,0.));
#452=DIRECTION('center_axis',(0.,1.,0.));
#453=DIRECTION('ref_axis',(1.,0.,0.));
#454=DIRECTION('center_axis',(0.,-1.,0.));
#455=DIRECTION('ref_axis',(1.,0.,0.));
#456=DIRECTION('',(-0.0522834956446947,0.998632282716302,-6.40288155895099E-18));
#457=DIRECTION('center_axis',(0.,-1.,0.));
#458=DIRECTION('ref_axis',(0.,0.,-1.));
#459=CARTESIAN_POINT('',(0.,0.,0.));
#460=CARTESIAN_POINT('Origin',(0.,75.9428532437391,0.));
#461=CARTESIAN_POINT('',(-583.75019649365,73.8195188672979,-7.14887809637587E-14));
#462=CARTESIAN_POINT('Origin',(0.,73.8195188672979,0.));
#463=CARTESIAN_POINT('',(-588.000000000001,78.0661876201803,-7.20092317898644E-14));
#464=CARTESIAN_POINT('',(-585.875098246825,75.9428532437391,-7.17490063768116E-14));
#465=CARTESIAN_POINT('Origin',(0.,78.0661876201803,0.));
#466=CARTESIAN_POINT('Origin',(0.,70.4879357759349,0.));
#467=CARTESIAN_POINT('',(-583.75019649365,67.156352684572,-7.14887809637587E-14));
#468=CARTESIAN_POINT('Origin',(0.,67.156352684572,0.));
#469=CARTESIAN_POINT('',(-583.75019649365,70.4879357759349,-7.14887809637587E-14));
#470=CARTESIAN_POINT('Origin',(0.,65.0298823976761,0.));
#471=CARTESIAN_POINT('',(-588.,62.9034121107802,-7.20092317898644E-14));
#472=CARTESIAN_POINT('Origin',(0.,62.9034121107802,0.));
#473=CARTESIAN_POINT('',(-585.875098246825,65.0298823976761,-7.17490063768116E-14));
#474=CARTESIAN_POINT('Origin',(0.,59.5682895484376,0.));
#475=CARTESIAN_POINT('',(-587.986641583489,56.233166986095,-7.20075958556622E-14));
#476=CARTESIAN_POINT('Origin',(0.,56.233166986095,0.));
#477=CARTESIAN_POINT('',(-587.993320791745,59.5682895484376,-7.20084138227633E-14));
#478=CARTESIAN_POINT('Origin',(0.,54.1165068911708,0.));
#479=CARTESIAN_POINT('',(-583.75019649365,51.9998467962466,-7.14887809637587E-14));
#480=CARTESIAN_POINT('Origin',(0.,51.9998467962466,0.));
#481=CARTESIAN_POINT('',(-585.868419038569,54.1165068911708,-7.17481884097104E-14));
#482=CARTESIAN_POINT('Origin',(579.72519649365,51.9998467962466,0.));
#483=CARTESIAN_POINT('',(-579.72519649365,51.9998467962466,-7.09958606271019E-14));
#484=CARTESIAN_POINT('Origin',(0.,51.9998467962466,0.));
#485=CARTESIAN_POINT('Origin',(0.,52.0521827524896,0.));
#486=CARTESIAN_POINT('',(-577.727937424141,52.1045187087326,-7.07512669344476E-14));
#487=CARTESIAN_POINT('',(-578.726566958895,52.0521827524896,-7.08735637807748E-14));
#488=CARTESIAN_POINT('Origin',(0.,52.1045187087326,0.));
#489=CARTESIAN_POINT('Origin',(0.,54.0534573860732,0.));
#490=CARTESIAN_POINT('',(-586.,56.0023960634138,-7.1764302430035E-14));
#491=CARTESIAN_POINT('',(-581.863968712071,54.0534573860732,-7.12577846822413E-14));
#492=CARTESIAN_POINT('Origin',(0.,56.0023960634138,0.));
#493=CARTESIAN_POINT('Origin',(0.,59.4529040870968,0.));
#494=CARTESIAN_POINT('',(-586.,62.9034121107797,-7.1764302430035E-14));
#495=CARTESIAN_POINT('',(-586.,59.4529040870968,-7.1764302430035E-14));
#496=CARTESIAN_POINT('Origin',(0.,62.9034121107797,0.));
#497=CARTESIAN_POINT('Origin',(0.,65.0298823976758,0.));
#498=CARTESIAN_POINT('',(-581.75019649365,67.156352684572,-7.12438516039292E-14));
#499=CARTESIAN_POINT('',(-583.875098246825,65.0298823976758,-7.15040770169821E-14));
#500=CARTESIAN_POINT('Origin',(0.,67.156352684572,0.));
#501=CARTESIAN_POINT('Origin',(0.,70.4879357759349,0.));
#502=CARTESIAN_POINT('',(-581.75019649365,73.8195188672979,-7.12438516039292E-14));
#503=CARTESIAN_POINT('',(-581.75019649365,70.4879357759349,-7.12438516039292E-14));
#504=CARTESIAN_POINT('Origin',(0.,73.8195188672979,0.));
#505=CARTESIAN_POINT('Origin',(0.,75.9428532437391,0.));
#506=CARTESIAN_POINT('',(-586.,78.0661876201803,-7.17643024300349E-14));
#507=CARTESIAN_POINT('',(-583.875098246825,75.9428532437391,-7.15040770169821E-14));
#508=CARTESIAN_POINT('Origin',(0.,78.0661876201803,0.));
#509=CARTESIAN_POINT('Origin',(0.,81.3977299607825,0.));
#510=CARTESIAN_POINT('',(-586.,84.7292723013847,-7.17643024300349E-14));
#511=CARTESIAN_POINT('',(-586.,81.3977299607825,-7.17643024300349E-14));
#512=CARTESIAN_POINT('Origin',(0.,84.7292723013847,0.));
#513=CARTESIAN_POINT('Origin',(0.,86.8645595488157,0.));
#514=CARTESIAN_POINT('',(-581.75019649365,88.9998467962467,-7.12438516039293E-14));
#515=CARTESIAN_POINT('',(-583.875098246825,86.8645595488157,-7.15040770169821E-14));
#516=CARTESIAN_POINT('Origin',(0.,88.9998467962467,0.));
#517=CARTESIAN_POINT('Origin',(583.732575579769,88.9998467962467,0.));
#518=CARTESIAN_POINT('',(-583.732575579769,88.9998467962465,-7.14866230241804E-14));
#519=CARTESIAN_POINT('Origin',(0.,88.9998467962467,0.));
#520=CARTESIAN_POINT('Origin',(0.,86.8645595488156,0.));
#521=CARTESIAN_POINT('',(-588.000000000001,84.7292723013847,-7.20092317898644E-14));
#522=CARTESIAN_POINT('Origin',(0.,84.7292723013847,0.));
#523=CARTESIAN_POINT('',(-585.866287789885,86.8645595488156,-7.17479274070224E-14));
#524=CARTESIAN_POINT('Origin',(0.,81.3977299607825,0.));
#525=CARTESIAN_POINT('',(-588.000000000001,81.3977299607825,-7.20092317898644E-14));
#526=CARTESIAN_POINT('Origin',(0.,25.9999233981233,0.));
#527=CARTESIAN_POINT('',(-577.,-4.44089209850063E-15,-7.06621203108023E-14));
#528=CARTESIAN_POINT('Origin',(0.,0.,0.));
#529=CARTESIAN_POINT('',(-579.72519649365,51.9998467962466,-7.09958606271019E-14));
#530=CARTESIAN_POINT('',(-578.362598246825,25.9999233981233,-7.08289904689521E-14));
#531=CARTESIAN_POINT('Origin',(0.,51.9998467962466,0.));
#532=CARTESIAN_POINT('Origin',(579.72519649365,51.9998467962466,0.));
#533=CARTESIAN_POINT('',(-577.722457315421,51.9998467962466,-7.07505958146873E-14));
#534=CARTESIAN_POINT('Origin',(0.,51.9998467962466,0.));
#535=CARTESIAN_POINT('Origin',(0.,25.9999233981233,0.));
#536=CARTESIAN_POINT('',(-575.,0.,-7.04171909509728E-14));
#537=CARTESIAN_POINT('Origin',(0.,0.,0.));
#538=CARTESIAN_POINT('',(-576.36122865771,25.9999233981233,-7.05838933828301E-14));
#539=CARTESIAN_POINT('Origin',(575.,-7.14905195356542E-30,0.));
#540=UNCERTAINTY_MEASURE_WITH_UNIT(LENGTH_MEASURE(0.01),#544,
'DISTANCE_ACCURACY_VALUE',
'Maximum model space distance between geometric entities at asserted c
onnectivities');
#541=UNCERTAINTY_MEASURE_WITH_UNIT(LENGTH_MEASURE(0.01),#544,
'DISTANCE_ACCURACY_VALUE',
'Maximum model space distance between geometric entities at asserted c
onnectivities');
#542=(
GEOMETRIC_REPRESENTATION_CONTEXT(3)
GLOBAL_UNCERTAINTY_ASSIGNED_CONTEXT((#540))
GLOBAL_UNIT_ASSIGNED_CONTEXT((#544,#546,#547))
REPRESENTATION_CONTEXT('','3D')
);
#543=(
GEOMETRIC_REPRESENTATION_CONTEXT(3)
GLOBAL_UNCERTAINTY_ASSIGNED_CONTEXT((#541))
GLOBAL_UNIT_ASSIGNED_CONTEXT((#544,#546,#547))
REPRESENTATION_CONTEXT('','3D')
);
#544=(
LENGTH_UNIT()
NAMED_UNIT(*)
SI_UNIT(.MILLI.,.METRE.)
);
#545=(
LENGTH_UNIT()
NAMED_UNIT(*)
SI_UNIT($,.METRE.)
);
#546=(
NAMED_UNIT(*)
PLANE_ANGLE_UNIT()
SI_UNIT($,.RADIAN.)
);
#547=(
NAMED_UNIT(*)
SI_UNIT($,.STERADIAN.)
SOLID_ANGLE_UNIT()
);
#548=SHAPE_DEFINITION_REPRESENTATION(#549,#550);
#549=PRODUCT_DEFINITION_SHAPE('',$,#552);
#550=SHAPE_REPRESENTATION('',(#313),#542);
#551=PRODUCT_DEFINITION_CONTEXT('part definition',#556,'design');
#552=PRODUCT_DEFINITION('BFM Spigot 1150mm','BFM Spigot 1150mm v2',#553,
#551);
#553=PRODUCT_DEFINITION_FORMATION('',$,#558);
#554=PRODUCT_RELATED_PRODUCT_CATEGORY('BFM Spigot 1150mm v2',
'BFM Spigot 1150mm v2',(#558));
#555=APPLICATION_PROTOCOL_DEFINITION('international standard',
'automotive_design',2009,#556);
#556=APPLICATION_CONTEXT(
'Core Data for Automotive Mechanical Design Process');
#557=PRODUCT_CONTEXT('part definition',#556,'mechanical');
#558=PRODUCT('BFM Spigot 1150mm','BFM Spigot 1150mm v2',$,(#557));
#559=PRESENTATION_STYLE_ASSIGNMENT((#560));
#560=SURFACE_STYLE_USAGE(.BOTH.,#561);
#561=SURFACE_SIDE_STYLE('',(#562));
#562=SURFACE_STYLE_FILL_AREA(#563);
#563=FILL_AREA_STYLE('Steel - Satin',(#564));
#564=FILL_AREA_STYLE_COLOUR('Steel - Satin',#565);
#565=COLOUR_RGB('Steel - Satin',0.627450980392157,0.627450980392157,0.627450980392157);
ENDSEC;
END-ISO-10303-21;
