ISO-10303-21;
HEADER;
/* Generated by software containing ST-Developer
 * from STEP Tools, Inc. (www.steptools.com) 
 */

FILE_DESCRIPTION(
/* description */ (''),
/* implementation_level */ '2;1');

FILE_NAME(
/* name */ 
'M:/Public/Photos, Drawings, Video/CAD Drawings/BFM Drawings/Standard 
BFM Connectors & Spigots/.STP Files/Spigots/BFM Spigot 1300mm v1.step',

/* time_stamp */ '2021-08-06T08:15:16+12:00',
/* author */ (''),
/* organization */ (''),
/* preprocessor_version */ 'ST-DEVELOPER v18.1',
/* originating_system */ 'Autodesk Translation Framework v10.9.0.1377',

/* authorisation */ '');

FILE_SCHEMA (('AUTOMOTIVE_DESIGN { 1 0 10303 214 3 1 1 }'));
ENDSEC;

DATA;
#10=MECHANICAL_DESIGN_GEOMETRIC_PRESENTATION_REPRESENTATION('',(#13),#495);
#11=SHAPE_REPRESENTATION_RELATIONSHIP('SRR','None',#502,#12);
#12=ADVANCED_BREP_SHAPE_REPRESENTATION('',(#14),#494);
#13=STYLED_ITEM('',(#511),#14);
#14=MANIFOLD_SOLID_BREP('Body12',#272);
#15=FACE_BOUND('',#58,.T.);
#16=FACE_BOUND('',#61,.T.);
#17=FACE_BOUND('',#71,.T.);
#18=PLANE('',#299);
#19=PLANE('',#303);
#20=PLANE('',#321);
#21=CONICAL_SURFACE('',#289,660.87509824681,0.785767111030068);
#22=CONICAL_SURFACE('',#293,660.87509824681,0.785029215764821);
#23=CONICAL_SURFACE('',#295,662.993320791731,0.00200268481931694);
#24=CONICAL_SURFACE('',#297,660.868419038563,0.785767111030074);
#25=CONICAL_SURFACE('',#301,653.362598246825,0.0523598775598466);
#26=CONICAL_SURFACE('',#305,651.363968712071,0.0523073450397901);
#27=CONICAL_SURFACE('',#307,656.863968712085,1.13044495293372);
#28=CONICAL_SURFACE('',#311,658.875098246829,0.785029215767642);
#29=CONICAL_SURFACE('',#315,658.875098246809,0.78576711103);
#30=CONICAL_SURFACE('',#319,658.875098246804,0.782960366933189);
#31=CONICAL_SURFACE('',#323,660.875098246804,0.782960366933206);
#32=FACE_OUTER_BOUND('',#51,.T.);
#33=FACE_OUTER_BOUND('',#52,.T.);
#34=FACE_OUTER_BOUND('',#53,.T.);
#35=FACE_OUTER_BOUND('',#54,.T.);
#36=FACE_OUTER_BOUND('',#55,.T.);
#37=FACE_OUTER_BOUND('',#56,.T.);
#38=FACE_OUTER_BOUND('',#57,.T.);
#39=FACE_OUTER_BOUND('',#59,.T.);
#40=FACE_OUTER_BOUND('',#60,.T.);
#41=FACE_OUTER_BOUND('',#62,.T.);
#42=FACE_OUTER_BOUND('',#63,.T.);
#43=FACE_OUTER_BOUND('',#64,.T.);
#44=FACE_OUTER_BOUND('',#65,.T.);
#45=FACE_OUTER_BOUND('',#66,.T.);
#46=FACE_OUTER_BOUND('',#67,.T.);
#47=FACE_OUTER_BOUND('',#68,.T.);
#48=FACE_OUTER_BOUND('',#69,.T.);
#49=FACE_OUTER_BOUND('',#70,.T.);
#50=FACE_OUTER_BOUND('',#72,.T.);
#51=EDGE_LOOP('',(#178,#179,#180,#181));
#52=EDGE_LOOP('',(#182,#183,#184,#185));
#53=EDGE_LOOP('',(#186,#187,#188,#189));
#54=EDGE_LOOP('',(#190,#191,#192,#193));
#55=EDGE_LOOP('',(#194,#195,#196,#197));
#56=EDGE_LOOP('',(#198,#199,#200,#201));
#57=EDGE_LOOP('',(#202));
#58=EDGE_LOOP('',(#203));
#59=EDGE_LOOP('',(#204,#205,#206,#207));
#60=EDGE_LOOP('',(#208));
#61=EDGE_LOOP('',(#209));
#62=EDGE_LOOP('',(#210,#211,#212,#213));
#63=EDGE_LOOP('',(#214,#215,#216,#217));
#64=EDGE_LOOP('',(#218,#219,#220,#221));
#65=EDGE_LOOP('',(#222,#223,#224,#225));
#66=EDGE_LOOP('',(#226,#227,#228,#229));
#67=EDGE_LOOP('',(#230,#231,#232,#233));
#68=EDGE_LOOP('',(#234,#235,#236,#237));
#69=EDGE_LOOP('',(#238,#239,#240,#241));
#70=EDGE_LOOP('',(#242));
#71=EDGE_LOOP('',(#243));
#72=EDGE_LOOP('',(#244,#245,#246,#247));
#73=LINE('',#423,#89);
#74=LINE('',#428,#90);
#75=LINE('',#432,#91);
#76=LINE('',#436,#92);
#77=LINE('',#440,#93);
#78=LINE('',#444,#94);
#79=LINE('',#451,#95);
#80=LINE('',#457,#96);
#81=LINE('',#461,#97);
#82=LINE('',#465,#98);
#83=LINE('',#469,#99);
#84=LINE('',#473,#100);
#85=LINE('',#477,#101);
#86=LINE('',#481,#102);
#87=LINE('',#485,#103);
#88=LINE('',#491,#104);
#89=VECTOR('',#330,662.999999999985);
#90=VECTOR('',#337,660.87509824681);
#91=VECTOR('',#342,658.750196493635);
#92=VECTOR('',#347,660.87509824681);
#93=VECTOR('',#352,662.993320791731);
#94=VECTOR('',#357,660.868419038563);
#95=VECTOR('',#366,653.362598246825);
#96=VECTOR('',#373,651.363968712071);
#97=VECTOR('',#378,656.863968712085);
#98=VECTOR('',#383,661.000000000019);
#99=VECTOR('',#388,658.875098246829);
#100=VECTOR('',#393,656.750196493634);
#101=VECTOR('',#398,658.87509824681);
#102=VECTOR('',#403,660.999999999985);
#103=VECTOR('',#408,658.875098246804);
#104=VECTOR('',#417,660.875098246804);
#105=CIRCLE('',#287,662.999999999985);
#106=CIRCLE('',#288,662.999999999985);
#107=CIRCLE('',#290,658.750196493635);
#108=CIRCLE('',#292,658.750196493634);
#109=CIRCLE('',#294,662.999999999986);
#110=CIRCLE('',#296,662.986641583475);
#111=CIRCLE('',#298,658.750196493651);
#112=CIRCLE('',#300,654.725196493651);
#113=CIRCLE('',#302,652.);
#114=CIRCLE('',#304,650.);
#115=CIRCLE('',#306,652.727937424141);
#116=CIRCLE('',#308,661.000000000014);
#117=CIRCLE('',#310,661.000000000024);
#118=CIRCLE('',#312,656.750196493634);
#119=CIRCLE('',#314,656.750196493634);
#120=CIRCLE('',#316,660.999999999985);
#121=CIRCLE('',#318,660.999999999985);
#122=CIRCLE('',#320,656.750196493623);
#123=CIRCLE('',#322,658.750196493623);
#124=VERTEX_POINT('',#420);
#125=VERTEX_POINT('',#422);
#126=VERTEX_POINT('',#426);
#127=VERTEX_POINT('',#430);
#128=VERTEX_POINT('',#434);
#129=VERTEX_POINT('',#438);
#130=VERTEX_POINT('',#442);
#131=VERTEX_POINT('',#446);
#132=VERTEX_POINT('',#449);
#133=VERTEX_POINT('',#453);
#134=VERTEX_POINT('',#456);
#135=VERTEX_POINT('',#460);
#136=VERTEX_POINT('',#464);
#137=VERTEX_POINT('',#468);
#138=VERTEX_POINT('',#472);
#139=VERTEX_POINT('',#476);
#140=VERTEX_POINT('',#480);
#141=VERTEX_POINT('',#484);
#142=VERTEX_POINT('',#488);
#143=EDGE_CURVE('',#124,#124,#105,.T.);
#144=EDGE_CURVE('',#124,#125,#73,.T.);
#145=EDGE_CURVE('',#125,#125,#106,.T.);
#146=EDGE_CURVE('',#126,#126,#107,.T.);
#147=EDGE_CURVE('',#126,#124,#74,.T.);
#148=EDGE_CURVE('',#127,#127,#108,.T.);
#149=EDGE_CURVE('',#127,#126,#75,.T.);
#150=EDGE_CURVE('',#128,#128,#109,.T.);
#151=EDGE_CURVE('',#128,#127,#76,.T.);
#152=EDGE_CURVE('',#129,#129,#110,.T.);
#153=EDGE_CURVE('',#129,#128,#77,.T.);
#154=EDGE_CURVE('',#130,#130,#111,.T.);
#155=EDGE_CURVE('',#130,#129,#78,.T.);
#156=EDGE_CURVE('',#131,#131,#112,.T.);
#157=EDGE_CURVE('',#132,#132,#113,.T.);
#158=EDGE_CURVE('',#132,#131,#79,.T.);
#159=EDGE_CURVE('',#133,#133,#114,.T.);
#160=EDGE_CURVE('',#133,#134,#80,.T.);
#161=EDGE_CURVE('',#134,#134,#115,.T.);
#162=EDGE_CURVE('',#134,#135,#81,.T.);
#163=EDGE_CURVE('',#135,#135,#116,.T.);
#164=EDGE_CURVE('',#135,#136,#82,.T.);
#165=EDGE_CURVE('',#136,#136,#117,.T.);
#166=EDGE_CURVE('',#136,#137,#83,.T.);
#167=EDGE_CURVE('',#137,#137,#118,.T.);
#168=EDGE_CURVE('',#137,#138,#84,.T.);
#169=EDGE_CURVE('',#138,#138,#119,.T.);
#170=EDGE_CURVE('',#138,#139,#85,.T.);
#171=EDGE_CURVE('',#139,#139,#120,.T.);
#172=EDGE_CURVE('',#139,#140,#86,.T.);
#173=EDGE_CURVE('',#140,#140,#121,.T.);
#174=EDGE_CURVE('',#140,#141,#87,.T.);
#175=EDGE_CURVE('',#141,#141,#122,.T.);
#176=EDGE_CURVE('',#142,#142,#123,.T.);
#177=EDGE_CURVE('',#125,#142,#88,.T.);
#178=ORIENTED_EDGE('',*,*,#143,.F.);
#179=ORIENTED_EDGE('',*,*,#144,.T.);
#180=ORIENTED_EDGE('',*,*,#145,.T.);
#181=ORIENTED_EDGE('',*,*,#144,.F.);
#182=ORIENTED_EDGE('',*,*,#146,.F.);
#183=ORIENTED_EDGE('',*,*,#147,.T.);
#184=ORIENTED_EDGE('',*,*,#143,.T.);
#185=ORIENTED_EDGE('',*,*,#147,.F.);
#186=ORIENTED_EDGE('',*,*,#148,.F.);
#187=ORIENTED_EDGE('',*,*,#149,.T.);
#188=ORIENTED_EDGE('',*,*,#146,.T.);
#189=ORIENTED_EDGE('',*,*,#149,.F.);
#190=ORIENTED_EDGE('',*,*,#150,.F.);
#191=ORIENTED_EDGE('',*,*,#151,.T.);
#192=ORIENTED_EDGE('',*,*,#148,.T.);
#193=ORIENTED_EDGE('',*,*,#151,.F.);
#194=ORIENTED_EDGE('',*,*,#152,.F.);
#195=ORIENTED_EDGE('',*,*,#153,.T.);
#196=ORIENTED_EDGE('',*,*,#150,.T.);
#197=ORIENTED_EDGE('',*,*,#153,.F.);
#198=ORIENTED_EDGE('',*,*,#154,.F.);
#199=ORIENTED_EDGE('',*,*,#155,.T.);
#200=ORIENTED_EDGE('',*,*,#152,.T.);
#201=ORIENTED_EDGE('',*,*,#155,.F.);
#202=ORIENTED_EDGE('',*,*,#154,.T.);
#203=ORIENTED_EDGE('',*,*,#156,.F.);
#204=ORIENTED_EDGE('',*,*,#157,.F.);
#205=ORIENTED_EDGE('',*,*,#158,.T.);
#206=ORIENTED_EDGE('',*,*,#156,.T.);
#207=ORIENTED_EDGE('',*,*,#158,.F.);
#208=ORIENTED_EDGE('',*,*,#157,.T.);
#209=ORIENTED_EDGE('',*,*,#159,.F.);
#210=ORIENTED_EDGE('',*,*,#159,.T.);
#211=ORIENTED_EDGE('',*,*,#160,.T.);
#212=ORIENTED_EDGE('',*,*,#161,.F.);
#213=ORIENTED_EDGE('',*,*,#160,.F.);
#214=ORIENTED_EDGE('',*,*,#161,.T.);
#215=ORIENTED_EDGE('',*,*,#162,.T.);
#216=ORIENTED_EDGE('',*,*,#163,.F.);
#217=ORIENTED_EDGE('',*,*,#162,.F.);
#218=ORIENTED_EDGE('',*,*,#163,.T.);
#219=ORIENTED_EDGE('',*,*,#164,.T.);
#220=ORIENTED_EDGE('',*,*,#165,.F.);
#221=ORIENTED_EDGE('',*,*,#164,.F.);
#222=ORIENTED_EDGE('',*,*,#165,.T.);
#223=ORIENTED_EDGE('',*,*,#166,.T.);
#224=ORIENTED_EDGE('',*,*,#167,.F.);
#225=ORIENTED_EDGE('',*,*,#166,.F.);
#226=ORIENTED_EDGE('',*,*,#167,.T.);
#227=ORIENTED_EDGE('',*,*,#168,.T.);
#228=ORIENTED_EDGE('',*,*,#169,.F.);
#229=ORIENTED_EDGE('',*,*,#168,.F.);
#230=ORIENTED_EDGE('',*,*,#169,.T.);
#231=ORIENTED_EDGE('',*,*,#170,.T.);
#232=ORIENTED_EDGE('',*,*,#171,.F.);
#233=ORIENTED_EDGE('',*,*,#170,.F.);
#234=ORIENTED_EDGE('',*,*,#171,.T.);
#235=ORIENTED_EDGE('',*,*,#172,.T.);
#236=ORIENTED_EDGE('',*,*,#173,.F.);
#237=ORIENTED_EDGE('',*,*,#172,.F.);
#238=ORIENTED_EDGE('',*,*,#173,.T.);
#239=ORIENTED_EDGE('',*,*,#174,.T.);
#240=ORIENTED_EDGE('',*,*,#175,.F.);
#241=ORIENTED_EDGE('',*,*,#174,.F.);
#242=ORIENTED_EDGE('',*,*,#176,.F.);
#243=ORIENTED_EDGE('',*,*,#175,.T.);
#244=ORIENTED_EDGE('',*,*,#145,.F.);
#245=ORIENTED_EDGE('',*,*,#177,.T.);
#246=ORIENTED_EDGE('',*,*,#176,.T.);
#247=ORIENTED_EDGE('',*,*,#177,.F.);
#248=CYLINDRICAL_SURFACE('',#286,662.999999999985);
#249=CYLINDRICAL_SURFACE('',#291,658.750196493635);
#250=CYLINDRICAL_SURFACE('',#309,661.000000000019);
#251=CYLINDRICAL_SURFACE('',#313,656.750196493634);
#252=CYLINDRICAL_SURFACE('',#317,660.999999999985);
#253=ADVANCED_FACE('',(#32),#248,.T.);
#254=ADVANCED_FACE('',(#33),#21,.T.);
#255=ADVANCED_FACE('',(#34),#249,.T.);
#256=ADVANCED_FACE('',(#35),#22,.T.);
#257=ADVANCED_FACE('',(#36),#23,.T.);
#258=ADVANCED_FACE('',(#37),#24,.T.);
#259=ADVANCED_FACE('',(#38,#15),#18,.T.);
#260=ADVANCED_FACE('',(#39),#25,.T.);
#261=ADVANCED_FACE('',(#40,#16),#19,.T.);
#262=ADVANCED_FACE('',(#41),#26,.F.);
#263=ADVANCED_FACE('',(#42),#27,.F.);
#264=ADVANCED_FACE('',(#43),#250,.F.);
#265=ADVANCED_FACE('',(#44),#28,.F.);
#266=ADVANCED_FACE('',(#45),#251,.F.);
#267=ADVANCED_FACE('',(#46),#29,.F.);
#268=ADVANCED_FACE('',(#47),#252,.F.);
#269=ADVANCED_FACE('',(#48),#30,.F.);
#270=ADVANCED_FACE('',(#49,#17),#20,.T.);
#271=ADVANCED_FACE('',(#50),#31,.T.);
#272=CLOSED_SHELL('',(#253,#254,#255,#256,#257,#258,#259,#260,#261,#262,
#263,#264,#265,#266,#267,#268,#269,#270,#271));
#273=DERIVED_UNIT_ELEMENT(#275,1.);
#274=DERIVED_UNIT_ELEMENT(#497,-3.);
#275=(
MASS_UNIT()
NAMED_UNIT(*)
SI_UNIT(.KILO.,.GRAM.)
);
#276=DERIVED_UNIT((#273,#274));
#277=MEASURE_REPRESENTATION_ITEM('density measure',
POSITIVE_RATIO_MEASURE(8080.),#276);
#278=PROPERTY_DEFINITION_REPRESENTATION(#283,#280);
#279=PROPERTY_DEFINITION_REPRESENTATION(#284,#281);
#280=REPRESENTATION('material name',(#282),#494);
#281=REPRESENTATION('density',(#277),#494);
#282=DESCRIPTIVE_REPRESENTATION_ITEM('304L Stainless Steel',
'304L Stainless Steel');
#283=PROPERTY_DEFINITION('material property','material name',#504);
#284=PROPERTY_DEFINITION('material property','density of part',#504);
#285=AXIS2_PLACEMENT_3D('placement',#418,#324,#325);
#286=AXIS2_PLACEMENT_3D('',#419,#326,#327);
#287=AXIS2_PLACEMENT_3D('',#421,#328,#329);
#288=AXIS2_PLACEMENT_3D('',#424,#331,#332);
#289=AXIS2_PLACEMENT_3D('',#425,#333,#334);
#290=AXIS2_PLACEMENT_3D('',#427,#335,#336);
#291=AXIS2_PLACEMENT_3D('',#429,#338,#339);
#292=AXIS2_PLACEMENT_3D('',#431,#340,#341);
#293=AXIS2_PLACEMENT_3D('',#433,#343,#344);
#294=AXIS2_PLACEMENT_3D('',#435,#345,#346);
#295=AXIS2_PLACEMENT_3D('',#437,#348,#349);
#296=AXIS2_PLACEMENT_3D('',#439,#350,#351);
#297=AXIS2_PLACEMENT_3D('',#441,#353,#354);
#298=AXIS2_PLACEMENT_3D('',#443,#355,#356);
#299=AXIS2_PLACEMENT_3D('',#445,#358,#359);
#300=AXIS2_PLACEMENT_3D('',#447,#360,#361);
#301=AXIS2_PLACEMENT_3D('',#448,#362,#363);
#302=AXIS2_PLACEMENT_3D('',#450,#364,#365);
#303=AXIS2_PLACEMENT_3D('',#452,#367,#368);
#304=AXIS2_PLACEMENT_3D('',#454,#369,#370);
#305=AXIS2_PLACEMENT_3D('',#455,#371,#372);
#306=AXIS2_PLACEMENT_3D('',#458,#374,#375);
#307=AXIS2_PLACEMENT_3D('',#459,#376,#377);
#308=AXIS2_PLACEMENT_3D('',#462,#379,#380);
#309=AXIS2_PLACEMENT_3D('',#463,#381,#382);
#310=AXIS2_PLACEMENT_3D('',#466,#384,#385);
#311=AXIS2_PLACEMENT_3D('',#467,#386,#387);
#312=AXIS2_PLACEMENT_3D('',#470,#389,#390);
#313=AXIS2_PLACEMENT_3D('',#471,#391,#392);
#314=AXIS2_PLACEMENT_3D('',#474,#394,#395);
#315=AXIS2_PLACEMENT_3D('',#475,#396,#397);
#316=AXIS2_PLACEMENT_3D('',#478,#399,#400);
#317=AXIS2_PLACEMENT_3D('',#479,#401,#402);
#318=AXIS2_PLACEMENT_3D('',#482,#404,#405);
#319=AXIS2_PLACEMENT_3D('',#483,#406,#407);
#320=AXIS2_PLACEMENT_3D('',#486,#409,#410);
#321=AXIS2_PLACEMENT_3D('',#487,#411,#412);
#322=AXIS2_PLACEMENT_3D('',#489,#413,#414);
#323=AXIS2_PLACEMENT_3D('',#490,#415,#416);
#324=DIRECTION('axis',(0.,0.,1.));
#325=DIRECTION('refdir',(1.,0.,0.));
#326=DIRECTION('center_axis',(0.,-1.,0.));
#327=DIRECTION('ref_axis',(1.,0.,0.));
#328=DIRECTION('center_axis',(0.,-1.,0.));
#329=DIRECTION('ref_axis',(1.,0.,0.));
#330=DIRECTION('',(0.,1.,0.));
#331=DIRECTION('center_axis',(0.,-1.,0.));
#332=DIRECTION('ref_axis',(1.,0.,0.));
#333=DIRECTION('center_axis',(0.,1.,0.));
#334=DIRECTION('ref_axis',(1.,0.,0.));
#335=DIRECTION('center_axis',(0.,-1.,0.));
#336=DIRECTION('ref_axis',(1.,0.,0.));
#337=DIRECTION('',(-0.707367618427037,0.706845847693019,-8.66275489727157E-17));
#338=DIRECTION('center_axis',(0.,-1.,0.));
#339=DIRECTION('ref_axis',(1.,0.,0.));
#340=DIRECTION('center_axis',(0.,-1.,0.));
#341=DIRECTION('ref_axis',(1.,0.,0.));
#342=DIRECTION('',(0.,1.,0.));
#343=DIRECTION('center_axis',(0.,-1.,0.));
#344=DIRECTION('ref_axis',(1.,0.,0.));
#345=DIRECTION('center_axis',(0.,-1.,0.));
#346=DIRECTION('ref_axis',(1.,0.,0.));
#347=DIRECTION('',(0.706845847693013,0.707367618427043,8.65636504867846E-17));
#348=DIRECTION('center_axis',(0.,1.,0.));
#349=DIRECTION('ref_axis',(1.,0.,0.));
#350=DIRECTION('center_axis',(0.,-1.,0.));
#351=DIRECTION('ref_axis',(1.,0.,0.));
#352=DIRECTION('',(-0.00200268348060702,0.999997994627428,-2.45257991423067E-19));
#353=DIRECTION('center_axis',(0.,1.,0.));
#354=DIRECTION('ref_axis',(1.,0.,0.));
#355=DIRECTION('center_axis',(0.,-1.,0.));
#356=DIRECTION('ref_axis',(1.,0.,0.));
#357=DIRECTION('',(-0.707367618427042,0.706845847693014,-8.66275489727163E-17));
#358=DIRECTION('center_axis',(0.,-1.,0.));
#359=DIRECTION('ref_axis',(0.,0.,-1.));
#360=DIRECTION('center_axis',(0.,-1.,0.));
#361=DIRECTION('ref_axis',(1.,0.,0.));
#362=DIRECTION('center_axis',(0.,1.,0.));
#363=DIRECTION('ref_axis',(1.,0.,0.));
#364=DIRECTION('center_axis',(0.,-1.,0.));
#365=DIRECTION('ref_axis',(1.,0.,0.));
#366=DIRECTION('',(-0.0523359562429605,0.998629534754573,-6.40930612932575E-18));
#367=DIRECTION('center_axis',(0.,-1.,0.));
#368=DIRECTION('ref_axis',(0.,0.,-1.));
#369=DIRECTION('center_axis',(0.,-1.,0.));
#370=DIRECTION('ref_axis',(1.,0.,0.));
#371=DIRECTION('center_axis',(0.,1.,0.));
#372=DIRECTION('ref_axis',(1.,0.,0.));
#373=DIRECTION('',(-0.0522834956447062,0.998632282716301,-6.40288155895241E-18));
#374=DIRECTION('center_axis',(0.,-1.,0.));
#375=DIRECTION('ref_axis',(1.,0.,0.));
#376=DIRECTION('center_axis',(0.,1.,0.));
#377=DIRECTION('ref_axis',(1.,0.,0.));
#378=DIRECTION('',(-0.904601943376632,0.42625734485076,-1.10781787445867E-16));
#379=DIRECTION('center_axis',(0.,-1.,0.));
#380=DIRECTION('ref_axis',(1.,0.,0.));
#381=DIRECTION('center_axis',(0.,-1.,0.));
#382=DIRECTION('ref_axis',(1.,0.,0.));
#383=DIRECTION('',(0.,1.,0.));
#384=DIRECTION('center_axis',(0.,-1.,0.));
#385=DIRECTION('ref_axis',(1.,0.,0.));
#386=DIRECTION('center_axis',(0.,-1.,0.));
#387=DIRECTION('ref_axis',(1.,0.,0.));
#388=DIRECTION('',(0.706845847695009,0.707367618425048,8.6563650487029E-17));
#389=DIRECTION('center_axis',(0.,-1.,0.));
#390=DIRECTION('ref_axis',(1.,0.,0.));
#391=DIRECTION('center_axis',(0.,-1.,0.));
#392=DIRECTION('ref_axis',(1.,0.,0.));
#393=DIRECTION('',(0.,1.,0.));
#394=DIRECTION('center_axis',(0.,-1.,0.));
#395=DIRECTION('ref_axis',(1.,0.,0.));
#396=DIRECTION('center_axis',(0.,1.,0.));
#397=DIRECTION('ref_axis',(1.,0.,0.));
#398=DIRECTION('',(-0.707367618426989,0.706845847693067,-8.66275489727098E-17));
#399=DIRECTION('center_axis',(0.,-1.,0.));
#400=DIRECTION('ref_axis',(1.,0.,0.));
#401=DIRECTION('center_axis',(0.,-1.,0.));
#402=DIRECTION('ref_axis',(1.,0.,0.));
#403=DIRECTION('',(0.,1.,0.));
#404=DIRECTION('center_axis',(0.,-1.,0.));
#405=DIRECTION('ref_axis',(1.,0.,0.));
#406=DIRECTION('center_axis',(0.,-1.,0.));
#407=DIRECTION('ref_axis',(1.,0.,0.));
#408=DIRECTION('',(0.705380899368588,0.708828460775922,8.63842460591422E-17));
#409=DIRECTION('center_axis',(0.,-1.,0.));
#410=DIRECTION('ref_axis',(1.,0.,0.));
#411=DIRECTION('center_axis',(0.,1.,0.));
#412=DIRECTION('ref_axis',(0.,0.,1.));
#413=DIRECTION('center_axis',(0.,-1.,0.));
#414=DIRECTION('ref_axis',(1.,0.,0.));
#415=DIRECTION('center_axis',(0.,-1.,0.));
#416=DIRECTION('ref_axis',(1.,0.,0.));
#417=DIRECTION('',(0.7053808993686,0.70882846077591,8.63842460591437E-17));
#418=CARTESIAN_POINT('',(0.,0.,0.));
#419=CARTESIAN_POINT('Origin',(0.,81.3977299607699,0.));
#420=CARTESIAN_POINT('',(-662.999999999985,78.0661876201677,-8.11940827834677E-14));
#421=CARTESIAN_POINT('Origin',(0.,78.0661876201677,0.));
#422=CARTESIAN_POINT('',(-662.999999999985,84.7292723013722,-8.11940827834677E-14));
#423=CARTESIAN_POINT('',(-662.999999999985,81.3977299607699,-8.11940827834677E-14));
#424=CARTESIAN_POINT('Origin',(0.,84.7292723013722,0.));
#425=CARTESIAN_POINT('Origin',(0.,75.9428532437262,0.));
#426=CARTESIAN_POINT('',(-658.750196493635,73.8195188672848,-8.06736319573619E-14));
#427=CARTESIAN_POINT('Origin',(0.,73.8195188672848,0.));
#428=CARTESIAN_POINT('',(-660.87509824681,75.9428532437262,-8.09338573704148E-14));
#429=CARTESIAN_POINT('Origin',(0.,70.4879357759219,0.));
#430=CARTESIAN_POINT('',(-658.750196493635,67.1563526845589,-8.06736319573619E-14));
#431=CARTESIAN_POINT('Origin',(0.,67.1563526845589,0.));
#432=CARTESIAN_POINT('',(-658.750196493635,70.4879357759219,-8.06736319573619E-14));
#433=CARTESIAN_POINT('Origin',(0.,65.0298823976622,0.));
#434=CARTESIAN_POINT('',(-662.999999999986,62.9034121107654,-8.11940827834678E-14));
#435=CARTESIAN_POINT('Origin',(0.,62.9034121107654,0.));
#436=CARTESIAN_POINT('',(-660.87509824681,65.0298823976622,-8.09338573704149E-14));
#437=CARTESIAN_POINT('Origin',(0.,59.5682895484228,0.));
#438=CARTESIAN_POINT('',(-662.986641583475,56.2331669860802,-8.11924468492656E-14));
#439=CARTESIAN_POINT('Origin',(0.,56.2331669860802,0.));
#440=CARTESIAN_POINT('',(-662.993320791731,59.5682895484228,-8.11932648163667E-14));
#441=CARTESIAN_POINT('Origin',(0.,54.1165068911634,0.));
#442=CARTESIAN_POINT('',(-658.750196493651,51.9998467962465,-8.06736319573639E-14));
#443=CARTESIAN_POINT('Origin',(0.,51.9998467962465,0.));
#444=CARTESIAN_POINT('',(-660.868419038563,54.1165068911634,-8.09330394033148E-14));
#445=CARTESIAN_POINT('Origin',(654.725196493651,51.9998467962465,0.));
#446=CARTESIAN_POINT('',(-654.725196493651,51.9998467962465,-8.01807116207071E-14));
#447=CARTESIAN_POINT('Origin',(0.,51.9998467962465,0.));
#448=CARTESIAN_POINT('Origin',(0.,25.9999233981232,0.));
#449=CARTESIAN_POINT('',(-652.,0.,-7.98469713044074E-14));
#450=CARTESIAN_POINT('Origin',(0.,0.,0.));
#451=CARTESIAN_POINT('',(-653.362598246825,25.9999233981232,-8.00138414625573E-14));
#452=CARTESIAN_POINT('Origin',(650.,6.43000250410324E-30,0.));
#453=CARTESIAN_POINT('',(-650.,-4.44089209850063E-15,-7.9602041944578E-14));
#454=CARTESIAN_POINT('Origin',(0.,0.,0.));
#455=CARTESIAN_POINT('Origin',(0.,26.0522593543662,0.));
#456=CARTESIAN_POINT('',(-652.727937424141,52.1045187087324,-7.99361179280529E-14));
#457=CARTESIAN_POINT('',(-651.363968712071,26.0522593543662,-7.97690799363154E-14));
#458=CARTESIAN_POINT('Origin',(0.,52.1045187087324,0.));
#459=CARTESIAN_POINT('Origin',(0.,54.0534573860445,0.));
#460=CARTESIAN_POINT('',(-661.000000000028,56.0023960633565,-8.09491534236435E-14));
#461=CARTESIAN_POINT('',(-656.863968712085,54.0534573860445,-8.04426356758482E-14));
#462=CARTESIAN_POINT('Origin',(0.,56.0023960633859,0.));
#463=CARTESIAN_POINT('Origin',(0.,59.4529040870688,0.));
#464=CARTESIAN_POINT('',(-661.000000000019,62.9034121107517,-8.09491534236424E-14));
#465=CARTESIAN_POINT('',(-661.000000000019,59.4529040870688,-8.09491534236424E-14));
#466=CARTESIAN_POINT('Origin',(0.,62.9034121107517,0.));
#467=CARTESIAN_POINT('Origin',(0.,65.0298823976553,0.));
#468=CARTESIAN_POINT('',(-656.750196493634,67.156352684559,-8.04287025975325E-14));
#469=CARTESIAN_POINT('',(-658.875098246829,65.0298823976553,-8.06889280105877E-14));
#470=CARTESIAN_POINT('Origin',(0.,67.1563526845589,0.));
#471=CARTESIAN_POINT('Origin',(0.,70.4879357759219,0.));
#472=CARTESIAN_POINT('',(-656.750196493634,73.8195188672848,-8.04287025975325E-14));
#473=CARTESIAN_POINT('',(-656.750196493634,70.4879357759219,-8.04287025975325E-14));
#474=CARTESIAN_POINT('Origin',(0.,73.8195188672848,0.));
#475=CARTESIAN_POINT('Origin',(0.,75.9428532437262,0.));
#476=CARTESIAN_POINT('',(-660.999999999985,78.0661876201677,-8.09491534236382E-14));
#477=CARTESIAN_POINT('',(-658.875098246809,75.9428532437262,-8.06889280105853E-14));
#478=CARTESIAN_POINT('Origin',(0.,78.0661876201677,0.));
#479=CARTESIAN_POINT('Origin',(0.,81.3977299607699,0.));
#480=CARTESIAN_POINT('',(-660.999999999985,84.7292723013722,-8.09491534236382E-14));
#481=CARTESIAN_POINT('',(-660.999999999985,81.3977299607699,-8.09491534236382E-14));
#482=CARTESIAN_POINT('Origin',(0.,84.7292723013722,0.));
#483=CARTESIAN_POINT('Origin',(0.,86.8645595488094,0.));
#484=CARTESIAN_POINT('',(-656.750196493623,88.9998467962467,-8.0428702597531E-14));
#485=CARTESIAN_POINT('',(-658.875098246804,86.8645595488094,-8.06889280105846E-14));
#486=CARTESIAN_POINT('Origin',(0.,88.9998467962467,0.));
#487=CARTESIAN_POINT('Origin',(658.750196493623,88.9998467962467,0.));
#488=CARTESIAN_POINT('',(-658.750196493623,88.9998467962467,-8.06736319573605E-14));
#489=CARTESIAN_POINT('Origin',(0.,88.9998467962467,0.));
#490=CARTESIAN_POINT('Origin',(0.,86.8645595488094,0.));
#491=CARTESIAN_POINT('',(-660.875098246804,86.8645595488094,-8.09338573704141E-14));
#492=UNCERTAINTY_MEASURE_WITH_UNIT(LENGTH_MEASURE(0.01),#496,
'DISTANCE_ACCURACY_VALUE',
'Maximum model space distance between geometric entities at asserted c
onnectivities');
#493=UNCERTAINTY_MEASURE_WITH_UNIT(LENGTH_MEASURE(0.01),#496,
'DISTANCE_ACCURACY_VALUE',
'Maximum model space distance between geometric entities at asserted c
onnectivities');
#494=(
GEOMETRIC_REPRESENTATION_CONTEXT(3)
GLOBAL_UNCERTAINTY_ASSIGNED_CONTEXT((#492))
GLOBAL_UNIT_ASSIGNED_CONTEXT((#496,#498,#499))
REPRESENTATION_CONTEXT('','3D')
);
#495=(
GEOMETRIC_REPRESENTATION_CONTEXT(3)
GLOBAL_UNCERTAINTY_ASSIGNED_CONTEXT((#493))
GLOBAL_UNIT_ASSIGNED_CONTEXT((#496,#498,#499))
REPRESENTATION_CONTEXT('','3D')
);
#496=(
LENGTH_UNIT()
NAMED_UNIT(*)
SI_UNIT(.MILLI.,.METRE.)
);
#497=(
LENGTH_UNIT()
NAMED_UNIT(*)
SI_UNIT($,.METRE.)
);
#498=(
NAMED_UNIT(*)
PLANE_ANGLE_UNIT()
SI_UNIT($,.RADIAN.)
);
#499=(
NAMED_UNIT(*)
SI_UNIT($,.STERADIAN.)
SOLID_ANGLE_UNIT()
);
#500=SHAPE_DEFINITION_REPRESENTATION(#501,#502);
#501=PRODUCT_DEFINITION_SHAPE('',$,#504);
#502=SHAPE_REPRESENTATION('',(#285),#494);
#503=PRODUCT_DEFINITION_CONTEXT('part definition',#508,'design');
#504=PRODUCT_DEFINITION('BFM Spigot 1300mm','BFM Spigot 1300mm v1',#505,
#503);
#505=PRODUCT_DEFINITION_FORMATION('',$,#510);
#506=PRODUCT_RELATED_PRODUCT_CATEGORY('BFM Spigot 1300mm v1',
'BFM Spigot 1300mm v1',(#510));
#507=APPLICATION_PROTOCOL_DEFINITION('international standard',
'automotive_design',2009,#508);
#508=APPLICATION_CONTEXT(
'Core Data for Automotive Mechanical Design Process');
#509=PRODUCT_CONTEXT('part definition',#508,'mechanical');
#510=PRODUCT('BFM Spigot 1300mm','BFM Spigot 1300mm v1',$,(#509));
#511=PRESENTATION_STYLE_ASSIGNMENT((#512));
#512=SURFACE_STYLE_USAGE(.BOTH.,#513);
#513=SURFACE_SIDE_STYLE('',(#514));
#514=SURFACE_STYLE_FILL_AREA(#515);
#515=FILL_AREA_STYLE('Steel - Satin',(#516));
#516=FILL_AREA_STYLE_COLOUR('Steel - Satin',#517);
#517=COLOUR_RGB('Steel - Satin',0.627450980392157,0.627450980392157,0.627450980392157);
ENDSEC;
END-ISO-10303-21;
