ISO-10303-21;
HEADER;
/* Generated by software containing ST-Developer
 * from STEP Tools, Inc. (www.steptools.com) 
 */

FILE_DESCRIPTION(
/* description */ (''),
/* implementation_level */ '2;1');

FILE_NAME(
/* name */ 
'M:/Public/Photos, Drawings, Video/CAD Drawings/BFM Drawings/Standard 
BFM Connectors & Spigots/.STP Files/Spigots/BFM Spigot 1350mm v2.step',

/* time_stamp */ '2021-08-06T08:16:05+12:00',
/* author */ (''),
/* organization */ (''),
/* preprocessor_version */ 'ST-DEVELOPER v18.1',
/* originating_system */ 'Autodesk Translation Framework v10.9.0.1377',

/* authorisation */ '');

FILE_SCHEMA (('AUTOMOTIVE_DESIGN { 1 0 10303 214 3 1 1 }'));
ENDSEC;

DATA;
#10=MECHANICAL_DESIGN_GEOMETRIC_PRESENTATION_REPRESENTATION('',(#13),#495);
#11=SHAPE_REPRESENTATION_RELATIONSHIP('SRR','None',#502,#12);
#12=ADVANCED_BREP_SHAPE_REPRESENTATION('',(#14),#494);
#13=STYLED_ITEM('',(#511),#14);
#14=MANIFOLD_SOLID_BREP('Body13',#272);
#15=FACE_BOUND('',#53,.T.);
#16=FACE_BOUND('',#62,.T.);
#17=FACE_BOUND('',#65,.T.);
#18=PLANE('',#301);
#19=PLANE('',#317);
#20=PLANE('',#321);
#21=CYLINDRICAL_SURFACE('',#289,685.999999999795);
#22=CYLINDRICAL_SURFACE('',#293,681.750196493665);
#23=CYLINDRICAL_SURFACE('',#297,686.000000000016);
#24=CYLINDRICAL_SURFACE('',#305,688.000000000017);
#25=CYLINDRICAL_SURFACE('',#309,683.750196493665);
#26=FACE_OUTER_BOUND('',#45,.T.);
#27=FACE_OUTER_BOUND('',#46,.T.);
#28=FACE_OUTER_BOUND('',#47,.T.);
#29=FACE_OUTER_BOUND('',#48,.T.);
#30=FACE_OUTER_BOUND('',#49,.T.);
#31=FACE_OUTER_BOUND('',#50,.T.);
#32=FACE_OUTER_BOUND('',#51,.T.);
#33=FACE_OUTER_BOUND('',#52,.T.);
#34=FACE_OUTER_BOUND('',#54,.T.);
#35=FACE_OUTER_BOUND('',#55,.T.);
#36=FACE_OUTER_BOUND('',#56,.T.);
#37=FACE_OUTER_BOUND('',#57,.T.);
#38=FACE_OUTER_BOUND('',#58,.T.);
#39=FACE_OUTER_BOUND('',#59,.T.);
#40=FACE_OUTER_BOUND('',#60,.T.);
#41=FACE_OUTER_BOUND('',#61,.T.);
#42=FACE_OUTER_BOUND('',#63,.T.);
#43=FACE_OUTER_BOUND('',#64,.T.);
#44=FACE_OUTER_BOUND('',#66,.T.);
#45=EDGE_LOOP('',(#172,#173,#174,#175));
#46=EDGE_LOOP('',(#176,#177,#178,#179));
#47=EDGE_LOOP('',(#180,#181,#182,#183));
#48=EDGE_LOOP('',(#184,#185,#186,#187));
#49=EDGE_LOOP('',(#188,#189,#190,#191));
#50=EDGE_LOOP('',(#192,#193,#194,#195));
#51=EDGE_LOOP('',(#196,#197,#198,#199));
#52=EDGE_LOOP('',(#200));
#53=EDGE_LOOP('',(#201));
#54=EDGE_LOOP('',(#202,#203,#204,#205));
#55=EDGE_LOOP('',(#206,#207,#208,#209));
#56=EDGE_LOOP('',(#210,#211,#212,#213));
#57=EDGE_LOOP('',(#214,#215,#216,#217));
#58=EDGE_LOOP('',(#218,#219,#220,#221));
#59=EDGE_LOOP('',(#222,#223,#224,#225));
#60=EDGE_LOOP('',(#226,#227,#228,#229));
#61=EDGE_LOOP('',(#230));
#62=EDGE_LOOP('',(#231));
#63=EDGE_LOOP('',(#232,#233,#234,#235));
#64=EDGE_LOOP('',(#236));
#65=EDGE_LOOP('',(#237));
#66=EDGE_LOOP('',(#238,#239,#240,#241));
#67=LINE('',#423,#83);
#68=LINE('',#427,#84);
#69=LINE('',#431,#85);
#70=LINE('',#435,#86);
#71=LINE('',#439,#87);
#72=LINE('',#443,#88);
#73=LINE('',#447,#89);
#74=LINE('',#455,#90);
#75=LINE('',#459,#91);
#76=LINE('',#463,#92);
#77=LINE('',#467,#93);
#78=LINE('',#471,#94);
#79=LINE('',#475,#95);
#80=LINE('',#479,#96);
#81=LINE('',#486,#97);
#82=LINE('',#491,#98);
#83=VECTOR('',#330,681.863968711917);
#84=VECTOR('',#335,685.999999999795);
#85=VECTOR('',#340,683.875098246702);
#86=VECTOR('',#345,681.750196493665);
#87=VECTOR('',#350,683.87509824684);
#88=VECTOR('',#355,686.000000000016);
#89=VECTOR('',#360,683.87509824685);
#90=VECTOR('',#371,685.87509824685);
#91=VECTOR('',#376,688.000000000017);
#92=VECTOR('',#381,685.875098246841);
#93=VECTOR('',#386,683.750196493665);
#94=VECTOR('',#391,685.875098246841);
#95=VECTOR('',#396,687.993320791761);
#96=VECTOR('',#401,685.868419038578);
#97=VECTOR('',#410,678.362598246826);
#98=VECTOR('',#417,676.363968712071);
#99=CIRCLE('',#287,677.727937424141);
#100=CIRCLE('',#288,685.999999999851);
#101=CIRCLE('',#290,685.999999999739);
#102=CIRCLE('',#292,681.750196493665);
#103=CIRCLE('',#294,681.750196493665);
#104=CIRCLE('',#296,686.000000000015);
#105=CIRCLE('',#298,686.000000000016);
#106=CIRCLE('',#300,681.750196493684);
#107=CIRCLE('',#302,683.750196493684);
#108=CIRCLE('',#304,688.000000000017);
#109=CIRCLE('',#306,688.000000000016);
#110=CIRCLE('',#308,683.750196493665);
#111=CIRCLE('',#310,683.750196493665);
#112=CIRCLE('',#312,688.000000000017);
#113=CIRCLE('',#314,687.986641583505);
#114=CIRCLE('',#316,683.750196493651);
#115=CIRCLE('',#318,679.725196493651);
#116=CIRCLE('',#320,677.);
#117=CIRCLE('',#322,675.);
#118=VERTEX_POINT('',#420);
#119=VERTEX_POINT('',#422);
#120=VERTEX_POINT('',#426);
#121=VERTEX_POINT('',#430);
#122=VERTEX_POINT('',#434);
#123=VERTEX_POINT('',#438);
#124=VERTEX_POINT('',#442);
#125=VERTEX_POINT('',#446);
#126=VERTEX_POINT('',#450);
#127=VERTEX_POINT('',#453);
#128=VERTEX_POINT('',#457);
#129=VERTEX_POINT('',#461);
#130=VERTEX_POINT('',#465);
#131=VERTEX_POINT('',#469);
#132=VERTEX_POINT('',#473);
#133=VERTEX_POINT('',#477);
#134=VERTEX_POINT('',#481);
#135=VERTEX_POINT('',#484);
#136=VERTEX_POINT('',#488);
#137=EDGE_CURVE('',#118,#118,#99,.T.);
#138=EDGE_CURVE('',#118,#119,#67,.T.);
#139=EDGE_CURVE('',#119,#119,#100,.T.);
#140=EDGE_CURVE('',#119,#120,#68,.T.);
#141=EDGE_CURVE('',#120,#120,#101,.T.);
#142=EDGE_CURVE('',#120,#121,#69,.T.);
#143=EDGE_CURVE('',#121,#121,#102,.T.);
#144=EDGE_CURVE('',#121,#122,#70,.T.);
#145=EDGE_CURVE('',#122,#122,#103,.T.);
#146=EDGE_CURVE('',#122,#123,#71,.T.);
#147=EDGE_CURVE('',#123,#123,#104,.T.);
#148=EDGE_CURVE('',#123,#124,#72,.T.);
#149=EDGE_CURVE('',#124,#124,#105,.T.);
#150=EDGE_CURVE('',#124,#125,#73,.T.);
#151=EDGE_CURVE('',#125,#125,#106,.T.);
#152=EDGE_CURVE('',#126,#126,#107,.T.);
#153=EDGE_CURVE('',#127,#127,#108,.T.);
#154=EDGE_CURVE('',#127,#126,#74,.T.);
#155=EDGE_CURVE('',#128,#128,#109,.T.);
#156=EDGE_CURVE('',#128,#127,#75,.T.);
#157=EDGE_CURVE('',#129,#129,#110,.T.);
#158=EDGE_CURVE('',#129,#128,#76,.T.);
#159=EDGE_CURVE('',#130,#130,#111,.T.);
#160=EDGE_CURVE('',#130,#129,#77,.T.);
#161=EDGE_CURVE('',#131,#131,#112,.T.);
#162=EDGE_CURVE('',#131,#130,#78,.T.);
#163=EDGE_CURVE('',#132,#132,#113,.T.);
#164=EDGE_CURVE('',#132,#131,#79,.T.);
#165=EDGE_CURVE('',#133,#133,#114,.T.);
#166=EDGE_CURVE('',#133,#132,#80,.T.);
#167=EDGE_CURVE('',#134,#134,#115,.T.);
#168=EDGE_CURVE('',#135,#135,#116,.T.);
#169=EDGE_CURVE('',#135,#134,#81,.T.);
#170=EDGE_CURVE('',#136,#136,#117,.T.);
#171=EDGE_CURVE('',#136,#118,#82,.T.);
#172=ORIENTED_EDGE('',*,*,#137,.T.);
#173=ORIENTED_EDGE('',*,*,#138,.T.);
#174=ORIENTED_EDGE('',*,*,#139,.F.);
#175=ORIENTED_EDGE('',*,*,#138,.F.);
#176=ORIENTED_EDGE('',*,*,#139,.T.);
#177=ORIENTED_EDGE('',*,*,#140,.T.);
#178=ORIENTED_EDGE('',*,*,#141,.F.);
#179=ORIENTED_EDGE('',*,*,#140,.F.);
#180=ORIENTED_EDGE('',*,*,#141,.T.);
#181=ORIENTED_EDGE('',*,*,#142,.T.);
#182=ORIENTED_EDGE('',*,*,#143,.F.);
#183=ORIENTED_EDGE('',*,*,#142,.F.);
#184=ORIENTED_EDGE('',*,*,#143,.T.);
#185=ORIENTED_EDGE('',*,*,#144,.T.);
#186=ORIENTED_EDGE('',*,*,#145,.F.);
#187=ORIENTED_EDGE('',*,*,#144,.F.);
#188=ORIENTED_EDGE('',*,*,#145,.T.);
#189=ORIENTED_EDGE('',*,*,#146,.T.);
#190=ORIENTED_EDGE('',*,*,#147,.F.);
#191=ORIENTED_EDGE('',*,*,#146,.F.);
#192=ORIENTED_EDGE('',*,*,#147,.T.);
#193=ORIENTED_EDGE('',*,*,#148,.T.);
#194=ORIENTED_EDGE('',*,*,#149,.F.);
#195=ORIENTED_EDGE('',*,*,#148,.F.);
#196=ORIENTED_EDGE('',*,*,#149,.T.);
#197=ORIENTED_EDGE('',*,*,#150,.T.);
#198=ORIENTED_EDGE('',*,*,#151,.F.);
#199=ORIENTED_EDGE('',*,*,#150,.F.);
#200=ORIENTED_EDGE('',*,*,#152,.F.);
#201=ORIENTED_EDGE('',*,*,#151,.T.);
#202=ORIENTED_EDGE('',*,*,#153,.F.);
#203=ORIENTED_EDGE('',*,*,#154,.T.);
#204=ORIENTED_EDGE('',*,*,#152,.T.);
#205=ORIENTED_EDGE('',*,*,#154,.F.);
#206=ORIENTED_EDGE('',*,*,#155,.F.);
#207=ORIENTED_EDGE('',*,*,#156,.T.);
#208=ORIENTED_EDGE('',*,*,#153,.T.);
#209=ORIENTED_EDGE('',*,*,#156,.F.);
#210=ORIENTED_EDGE('',*,*,#157,.F.);
#211=ORIENTED_EDGE('',*,*,#158,.T.);
#212=ORIENTED_EDGE('',*,*,#155,.T.);
#213=ORIENTED_EDGE('',*,*,#158,.F.);
#214=ORIENTED_EDGE('',*,*,#159,.F.);
#215=ORIENTED_EDGE('',*,*,#160,.T.);
#216=ORIENTED_EDGE('',*,*,#157,.T.);
#217=ORIENTED_EDGE('',*,*,#160,.F.);
#218=ORIENTED_EDGE('',*,*,#161,.F.);
#219=ORIENTED_EDGE('',*,*,#162,.T.);
#220=ORIENTED_EDGE('',*,*,#159,.T.);
#221=ORIENTED_EDGE('',*,*,#162,.F.);
#222=ORIENTED_EDGE('',*,*,#163,.F.);
#223=ORIENTED_EDGE('',*,*,#164,.T.);
#224=ORIENTED_EDGE('',*,*,#161,.T.);
#225=ORIENTED_EDGE('',*,*,#164,.F.);
#226=ORIENTED_EDGE('',*,*,#165,.F.);
#227=ORIENTED_EDGE('',*,*,#166,.T.);
#228=ORIENTED_EDGE('',*,*,#163,.T.);
#229=ORIENTED_EDGE('',*,*,#166,.F.);
#230=ORIENTED_EDGE('',*,*,#165,.T.);
#231=ORIENTED_EDGE('',*,*,#167,.F.);
#232=ORIENTED_EDGE('',*,*,#168,.F.);
#233=ORIENTED_EDGE('',*,*,#169,.T.);
#234=ORIENTED_EDGE('',*,*,#167,.T.);
#235=ORIENTED_EDGE('',*,*,#169,.F.);
#236=ORIENTED_EDGE('',*,*,#168,.T.);
#237=ORIENTED_EDGE('',*,*,#170,.F.);
#238=ORIENTED_EDGE('',*,*,#170,.T.);
#239=ORIENTED_EDGE('',*,*,#171,.T.);
#240=ORIENTED_EDGE('',*,*,#137,.F.);
#241=ORIENTED_EDGE('',*,*,#171,.F.);
#242=CONICAL_SURFACE('',#286,681.863968711917,1.13044495284773);
#243=CONICAL_SURFACE('',#291,683.875098246702,0.785029215767621);
#244=CONICAL_SURFACE('',#295,683.87509824684,0.785767111029949);
#245=CONICAL_SURFACE('',#299,683.87509824685,0.782960366933186);
#246=CONICAL_SURFACE('',#303,685.87509824685,0.78296036693322);
#247=CONICAL_SURFACE('',#307,685.875098246841,0.785767111030055);
#248=CONICAL_SURFACE('',#311,685.875098246841,0.785029215764817);
#249=CONICAL_SURFACE('',#313,687.993320791761,0.00200268481931685);
#250=CONICAL_SURFACE('',#315,685.868419038578,0.785767111030046);
#251=CONICAL_SURFACE('',#319,678.362598246825,0.0523598775598493);
#252=CONICAL_SURFACE('',#323,676.363968712071,0.0523073450397928);
#253=ADVANCED_FACE('',(#26),#242,.F.);
#254=ADVANCED_FACE('',(#27),#21,.F.);
#255=ADVANCED_FACE('',(#28),#243,.F.);
#256=ADVANCED_FACE('',(#29),#22,.F.);
#257=ADVANCED_FACE('',(#30),#244,.F.);
#258=ADVANCED_FACE('',(#31),#23,.F.);
#259=ADVANCED_FACE('',(#32),#245,.F.);
#260=ADVANCED_FACE('',(#33,#15),#18,.T.);
#261=ADVANCED_FACE('',(#34),#246,.T.);
#262=ADVANCED_FACE('',(#35),#24,.T.);
#263=ADVANCED_FACE('',(#36),#247,.T.);
#264=ADVANCED_FACE('',(#37),#25,.T.);
#265=ADVANCED_FACE('',(#38),#248,.T.);
#266=ADVANCED_FACE('',(#39),#249,.T.);
#267=ADVANCED_FACE('',(#40),#250,.T.);
#268=ADVANCED_FACE('',(#41,#16),#19,.T.);
#269=ADVANCED_FACE('',(#42),#251,.T.);
#270=ADVANCED_FACE('',(#43,#17),#20,.T.);
#271=ADVANCED_FACE('',(#44),#252,.F.);
#272=CLOSED_SHELL('',(#253,#254,#255,#256,#257,#258,#259,#260,#261,#262,
#263,#264,#265,#266,#267,#268,#269,#270,#271));
#273=DERIVED_UNIT_ELEMENT(#275,1.);
#274=DERIVED_UNIT_ELEMENT(#497,-3.);
#275=(
MASS_UNIT()
NAMED_UNIT(*)
SI_UNIT(.KILO.,.GRAM.)
);
#276=DERIVED_UNIT((#273,#274));
#277=MEASURE_REPRESENTATION_ITEM('density measure',
POSITIVE_RATIO_MEASURE(8080.),#276);
#278=PROPERTY_DEFINITION_REPRESENTATION(#283,#280);
#279=PROPERTY_DEFINITION_REPRESENTATION(#284,#281);
#280=REPRESENTATION('material name',(#282),#494);
#281=REPRESENTATION('density',(#277),#494);
#282=DESCRIPTIVE_REPRESENTATION_ITEM('304L Stainless Steel',
'304L Stainless Steel');
#283=PROPERTY_DEFINITION('material property','material name',#504);
#284=PROPERTY_DEFINITION('material property','density of part',#504);
#285=AXIS2_PLACEMENT_3D('placement',#418,#324,#325);
#286=AXIS2_PLACEMENT_3D('',#419,#326,#327);
#287=AXIS2_PLACEMENT_3D('',#421,#328,#329);
#288=AXIS2_PLACEMENT_3D('',#424,#331,#332);
#289=AXIS2_PLACEMENT_3D('',#425,#333,#334);
#290=AXIS2_PLACEMENT_3D('',#428,#336,#337);
#291=AXIS2_PLACEMENT_3D('',#429,#338,#339);
#292=AXIS2_PLACEMENT_3D('',#432,#341,#342);
#293=AXIS2_PLACEMENT_3D('',#433,#343,#344);
#294=AXIS2_PLACEMENT_3D('',#436,#346,#347);
#295=AXIS2_PLACEMENT_3D('',#437,#348,#349);
#296=AXIS2_PLACEMENT_3D('',#440,#351,#352);
#297=AXIS2_PLACEMENT_3D('',#441,#353,#354);
#298=AXIS2_PLACEMENT_3D('',#444,#356,#357);
#299=AXIS2_PLACEMENT_3D('',#445,#358,#359);
#300=AXIS2_PLACEMENT_3D('',#448,#361,#362);
#301=AXIS2_PLACEMENT_3D('',#449,#363,#364);
#302=AXIS2_PLACEMENT_3D('',#451,#365,#366);
#303=AXIS2_PLACEMENT_3D('',#452,#367,#368);
#304=AXIS2_PLACEMENT_3D('',#454,#369,#370);
#305=AXIS2_PLACEMENT_3D('',#456,#372,#373);
#306=AXIS2_PLACEMENT_3D('',#458,#374,#375);
#307=AXIS2_PLACEMENT_3D('',#460,#377,#378);
#308=AXIS2_PLACEMENT_3D('',#462,#379,#380);
#309=AXIS2_PLACEMENT_3D('',#464,#382,#383);
#310=AXIS2_PLACEMENT_3D('',#466,#384,#385);
#311=AXIS2_PLACEMENT_3D('',#468,#387,#388);
#312=AXIS2_PLACEMENT_3D('',#470,#389,#390);
#313=AXIS2_PLACEMENT_3D('',#472,#392,#393);
#314=AXIS2_PLACEMENT_3D('',#474,#394,#395);
#315=AXIS2_PLACEMENT_3D('',#476,#397,#398);
#316=AXIS2_PLACEMENT_3D('',#478,#399,#400);
#317=AXIS2_PLACEMENT_3D('',#480,#402,#403);
#318=AXIS2_PLACEMENT_3D('',#482,#404,#405);
#319=AXIS2_PLACEMENT_3D('',#483,#406,#407);
#320=AXIS2_PLACEMENT_3D('',#485,#408,#409);
#321=AXIS2_PLACEMENT_3D('',#487,#411,#412);
#322=AXIS2_PLACEMENT_3D('',#489,#413,#414);
#323=AXIS2_PLACEMENT_3D('',#490,#415,#416);
#324=DIRECTION('axis',(0.,0.,1.));
#325=DIRECTION('refdir',(1.,0.,0.));
#326=DIRECTION('center_axis',(0.,1.,0.));
#327=DIRECTION('ref_axis',(1.,0.,0.));
#328=DIRECTION('center_axis',(0.,-1.,0.));
#329=DIRECTION('ref_axis',(1.,0.,0.));
#330=DIRECTION('',(-0.904601943339979,0.426257344928546,-1.10781787441378E-16));
#331=DIRECTION('center_axis',(0.,-1.,0.));
#332=DIRECTION('ref_axis',(1.,0.,0.));
#333=DIRECTION('center_axis',(0.,-1.,0.));
#334=DIRECTION('ref_axis',(1.,0.,0.));
#335=DIRECTION('',(0.,1.,0.));
#336=DIRECTION('center_axis',(0.,-1.,0.));
#337=DIRECTION('ref_axis',(1.,0.,0.));
#338=DIRECTION('center_axis',(0.,-1.,0.));
#339=DIRECTION('ref_axis',(1.,0.,0.));
#340=DIRECTION('',(0.706845847694994,0.707367618425063,8.65636504870271E-17));
#341=DIRECTION('center_axis',(0.,-1.,0.));
#342=DIRECTION('ref_axis',(1.,0.,0.));
#343=DIRECTION('center_axis',(0.,-1.,0.));
#344=DIRECTION('ref_axis',(1.,0.,0.));
#345=DIRECTION('',(0.,1.,0.));
#346=DIRECTION('center_axis',(0.,-1.,0.));
#347=DIRECTION('ref_axis',(1.,0.,0.));
#348=DIRECTION('center_axis',(0.,1.,0.));
#349=DIRECTION('ref_axis',(1.,0.,0.));
#350=DIRECTION('',(-0.707367618426953,0.706845847693103,-8.66275489727054E-17));
#351=DIRECTION('center_axis',(0.,-1.,0.));
#352=DIRECTION('ref_axis',(1.,0.,0.));
#353=DIRECTION('center_axis',(0.,-1.,0.));
#354=DIRECTION('ref_axis',(1.,0.,0.));
#355=DIRECTION('',(0.,1.,0.));
#356=DIRECTION('center_axis',(0.,-1.,0.));
#357=DIRECTION('ref_axis',(1.,0.,0.));
#358=DIRECTION('center_axis',(0.,-1.,0.));
#359=DIRECTION('ref_axis',(1.,0.,0.));
#360=DIRECTION('',(0.705380899368586,0.708828460775924,8.6384246059142E-17));
#361=DIRECTION('center_axis',(0.,-1.,0.));
#362=DIRECTION('ref_axis',(1.,0.,0.));
#363=DIRECTION('center_axis',(0.,1.,0.));
#364=DIRECTION('ref_axis',(0.,0.,1.));
#365=DIRECTION('center_axis',(0.,-1.,0.));
#366=DIRECTION('ref_axis',(1.,0.,0.));
#367=DIRECTION('center_axis',(0.,-1.,0.));
#368=DIRECTION('ref_axis',(1.,0.,0.));
#369=DIRECTION('center_axis',(0.,-1.,0.));
#370=DIRECTION('ref_axis',(1.,0.,0.));
#371=DIRECTION('',(0.70538089936861,0.7088284607759,8.63842460591449E-17));
#372=DIRECTION('center_axis',(0.,-1.,0.));
#373=DIRECTION('ref_axis',(1.,0.,0.));
#374=DIRECTION('center_axis',(0.,-1.,0.));
#375=DIRECTION('ref_axis',(1.,0.,0.));
#376=DIRECTION('',(0.,1.,0.));
#377=DIRECTION('center_axis',(0.,1.,0.));
#378=DIRECTION('ref_axis',(1.,0.,0.));
#379=DIRECTION('center_axis',(0.,-1.,0.));
#380=DIRECTION('ref_axis',(1.,0.,0.));
#381=DIRECTION('',(-0.707367618427028,0.706845847693028,-8.66275489727146E-17));
#382=DIRECTION('center_axis',(0.,-1.,0.));
#383=DIRECTION('ref_axis',(1.,0.,0.));
#384=DIRECTION('center_axis',(0.,-1.,0.));
#385=DIRECTION('ref_axis',(1.,0.,0.));
#386=DIRECTION('',(0.,1.,0.));
#387=DIRECTION('center_axis',(0.,-1.,0.));
#388=DIRECTION('ref_axis',(1.,0.,0.));
#389=DIRECTION('center_axis',(0.,-1.,0.));
#390=DIRECTION('ref_axis',(1.,0.,0.));
#391=DIRECTION('',(0.70684584769301,0.707367618427046,8.65636504867842E-17));
#392=DIRECTION('center_axis',(0.,1.,0.));
#393=DIRECTION('ref_axis',(1.,0.,0.));
#394=DIRECTION('center_axis',(0.,-1.,0.));
#395=DIRECTION('ref_axis',(1.,0.,0.));
#396=DIRECTION('',(-0.00200268348060693,0.999997994627428,-2.45257991423056E-19));
#397=DIRECTION('center_axis',(0.,1.,0.));
#398=DIRECTION('ref_axis',(1.,0.,0.));
#399=DIRECTION('center_axis',(0.,-1.,0.));
#400=DIRECTION('ref_axis',(1.,0.,0.));
#401=DIRECTION('',(-0.707367618427021,0.706845847693034,-8.66275489727138E-17));
#402=DIRECTION('center_axis',(0.,-1.,0.));
#403=DIRECTION('ref_axis',(0.,0.,-1.));
#404=DIRECTION('center_axis',(0.,-1.,0.));
#405=DIRECTION('ref_axis',(1.,0.,0.));
#406=DIRECTION('center_axis',(0.,1.,0.));
#407=DIRECTION('ref_axis',(1.,0.,0.));
#408=DIRECTION('center_axis',(0.,-1.,0.));
#409=DIRECTION('ref_axis',(1.,0.,0.));
#410=DIRECTION('',(-0.0523359562429632,0.998629534754573,-6.40930612932609E-18));
#411=DIRECTION('center_axis',(0.,-1.,0.));
#412=DIRECTION('ref_axis',(0.,0.,-1.));
#413=DIRECTION('center_axis',(0.,-1.,0.));
#414=DIRECTION('ref_axis',(1.,0.,0.));
#415=DIRECTION('center_axis',(0.,1.,0.));
#416=DIRECTION('ref_axis',(1.,0.,0.));
#417=DIRECTION('',(-0.0522834956447089,0.998632282716301,-6.40288155895274E-18));
#418=CARTESIAN_POINT('',(0.,0.,0.));
#419=CARTESIAN_POINT('Origin',(0.,54.0534573864002,0.));
#420=CARTESIAN_POINT('',(-677.727937424141,52.1045187087324,-8.29977349259213E-14));
#421=CARTESIAN_POINT('Origin',(0.,52.1045187087324,0.));
#422=CARTESIAN_POINT('',(-685.999999999693,56.0023960640678,-8.40107704214708E-14));
#423=CARTESIAN_POINT('',(-681.863968711917,54.0534573864002,-8.35042526736961E-14));
#424=CARTESIAN_POINT('Origin',(0.,56.0023960637318,0.));
#425=CARTESIAN_POINT('Origin',(0.,59.4529040874147,0.));
#426=CARTESIAN_POINT('',(-685.999999999795,62.9034121110977,-8.40107704214834E-14));
#427=CARTESIAN_POINT('',(-685.999999999795,59.4529040874147,-8.40107704214834E-14));
#428=CARTESIAN_POINT('Origin',(0.,62.9034121110977,0.));
#429=CARTESIAN_POINT('Origin',(0.,65.0298823978435,0.));
#430=CARTESIAN_POINT('',(-681.750196493665,67.1563526845893,-8.34903195954046E-14));
#431=CARTESIAN_POINT('',(-683.875098246702,65.0298823978435,-8.37505450084406E-14));
#432=CARTESIAN_POINT('Origin',(0.,67.1563526845893,0.));
#433=CARTESIAN_POINT('Origin',(0.,70.4879357759522,0.));
#434=CARTESIAN_POINT('',(-681.750196493665,73.8195188673151,-8.34903195954046E-14));
#435=CARTESIAN_POINT('',(-681.750196493665,70.4879357759522,-8.34903195954046E-14));
#436=CARTESIAN_POINT('Origin',(0.,73.8195188673151,0.));
#437=CARTESIAN_POINT('Origin',(0.,75.9428532437567,0.));
#438=CARTESIAN_POINT('',(-686.000000000015,78.0661876201982,-8.40107704215103E-14));
#439=CARTESIAN_POINT('',(-683.87509824684,75.9428532437567,-8.37505450084575E-14));
#440=CARTESIAN_POINT('Origin',(0.,78.0661876201983,0.));
#441=CARTESIAN_POINT('Origin',(0.,81.3977299608005,0.));
#442=CARTESIAN_POINT('',(-686.000000000016,84.7292723014027,-8.40107704215104E-14));
#443=CARTESIAN_POINT('',(-686.000000000016,81.3977299608005,-8.40107704215104E-14));
#444=CARTESIAN_POINT('Origin',(0.,84.7292723014027,0.));
#445=CARTESIAN_POINT('Origin',(0.,86.8645595488247,0.));
#446=CARTESIAN_POINT('',(-681.750196493684,88.9998467962466,-8.34903195954069E-14));
#447=CARTESIAN_POINT('',(-683.87509824685,86.8645595488247,-8.37505450084587E-14));
#448=CARTESIAN_POINT('Origin',(0.,88.9998467962467,0.));
#449=CARTESIAN_POINT('Origin',(683.750196493684,88.9998467962467,0.));
#450=CARTESIAN_POINT('',(-683.750196493684,88.9998467962467,-8.37352489552364E-14));
#451=CARTESIAN_POINT('Origin',(0.,88.9998467962467,0.));
#452=CARTESIAN_POINT('Origin',(0.,86.8645595488247,0.));
#453=CARTESIAN_POINT('',(-688.000000000017,84.7292723014027,-8.42556997813399E-14));
#454=CARTESIAN_POINT('Origin',(0.,84.7292723014027,0.));
#455=CARTESIAN_POINT('',(-685.87509824685,86.8645595488247,-8.39954743682882E-14));
#456=CARTESIAN_POINT('Origin',(0.,81.3977299608004,0.));
#457=CARTESIAN_POINT('',(-688.000000000017,78.0661876201982,-8.42556997813399E-14));
#458=CARTESIAN_POINT('Origin',(0.,78.0661876201982,0.));
#459=CARTESIAN_POINT('',(-688.000000000017,81.3977299608004,-8.42556997813399E-14));
#460=CARTESIAN_POINT('Origin',(0.,75.9428532437565,0.));
#461=CARTESIAN_POINT('',(-683.750196493665,73.8195188673149,-8.37352489552341E-14));
#462=CARTESIAN_POINT('Origin',(0.,73.8195188673149,0.));
#463=CARTESIAN_POINT('',(-685.875098246841,75.9428532437565,-8.3995474368287E-14));
#464=CARTESIAN_POINT('Origin',(0.,70.4879357759521,0.));
#465=CARTESIAN_POINT('',(-683.750196493665,67.1563526845893,-8.37352489552341E-14));
#466=CARTESIAN_POINT('Origin',(0.,67.1563526845893,0.));
#467=CARTESIAN_POINT('',(-683.750196493665,70.4879357759521,-8.37352489552341E-14));
#468=CARTESIAN_POINT('Origin',(0.,65.0298823976928,0.));
#469=CARTESIAN_POINT('',(-688.000000000017,62.9034121107962,-8.425569978134E-14));
#470=CARTESIAN_POINT('Origin',(0.,62.9034121107962,0.));
#471=CARTESIAN_POINT('',(-685.875098246841,65.0298823976928,-8.3995474368287E-14));
#472=CARTESIAN_POINT('Origin',(0.,59.5682895484535,0.));
#473=CARTESIAN_POINT('',(-687.986641583505,56.2331669861107,-8.42540638471377E-14));
#474=CARTESIAN_POINT('Origin',(0.,56.2331669861107,0.));
#475=CARTESIAN_POINT('',(-687.993320791761,59.5682895484535,-8.42548818142388E-14));
#476=CARTESIAN_POINT('Origin',(0.,54.1165068911786,0.));
#477=CARTESIAN_POINT('',(-683.750196493651,51.9998467962465,-8.37352489552323E-14));
#478=CARTESIAN_POINT('Origin',(0.,51.9998467962465,0.));
#479=CARTESIAN_POINT('',(-685.868419038578,54.1165068911786,-8.3994656401185E-14));
#480=CARTESIAN_POINT('Origin',(679.725196493651,51.9998467962465,0.));
#481=CARTESIAN_POINT('',(-679.725196493651,51.9998467962465,-8.32423286185755E-14));
#482=CARTESIAN_POINT('Origin',(0.,51.9998467962465,0.));
#483=CARTESIAN_POINT('Origin',(0.,25.9999233981232,0.));
#484=CARTESIAN_POINT('',(-677.,-4.44089209850063E-15,-8.29085883022758E-14));
#485=CARTESIAN_POINT('Origin',(0.,0.,0.));
#486=CARTESIAN_POINT('',(-678.362598246825,25.9999233981232,-8.30754584604257E-14));
#487=CARTESIAN_POINT('Origin',(675.,1.18534212274977E-29,0.));
#488=CARTESIAN_POINT('',(-675.,0.,-8.26636589424463E-14));
#489=CARTESIAN_POINT('Origin',(0.,0.,0.));
#490=CARTESIAN_POINT('Origin',(0.,26.0522593543662,0.));
#491=CARTESIAN_POINT('',(-676.363968712071,26.0522593543662,-8.28306969341838E-14));
#492=UNCERTAINTY_MEASURE_WITH_UNIT(LENGTH_MEASURE(0.01),#496,
'DISTANCE_ACCURACY_VALUE',
'Maximum model space distance between geometric entities at asserted c
onnectivities');
#493=UNCERTAINTY_MEASURE_WITH_UNIT(LENGTH_MEASURE(0.01),#496,
'DISTANCE_ACCURACY_VALUE',
'Maximum model space distance between geometric entities at asserted c
onnectivities');
#494=(
GEOMETRIC_REPRESENTATION_CONTEXT(3)
GLOBAL_UNCERTAINTY_ASSIGNED_CONTEXT((#492))
GLOBAL_UNIT_ASSIGNED_CONTEXT((#496,#498,#499))
REPRESENTATION_CONTEXT('','3D')
);
#495=(
GEOMETRIC_REPRESENTATION_CONTEXT(3)
GLOBAL_UNCERTAINTY_ASSIGNED_CONTEXT((#493))
GLOBAL_UNIT_ASSIGNED_CONTEXT((#496,#498,#499))
REPRESENTATION_CONTEXT('','3D')
);
#496=(
LENGTH_UNIT()
NAMED_UNIT(*)
SI_UNIT(.MILLI.,.METRE.)
);
#497=(
LENGTH_UNIT()
NAMED_UNIT(*)
SI_UNIT($,.METRE.)
);
#498=(
NAMED_UNIT(*)
PLANE_ANGLE_UNIT()
SI_UNIT($,.RADIAN.)
);
#499=(
NAMED_UNIT(*)
SI_UNIT($,.STERADIAN.)
SOLID_ANGLE_UNIT()
);
#500=SHAPE_DEFINITION_REPRESENTATION(#501,#502);
#501=PRODUCT_DEFINITION_SHAPE('',$,#504);
#502=SHAPE_REPRESENTATION('',(#285),#494);
#503=PRODUCT_DEFINITION_CONTEXT('part definition',#508,'design');
#504=PRODUCT_DEFINITION('BFM Spigot 1350mm','BFM Spigot 1350mm v2',#505,
#503);
#505=PRODUCT_DEFINITION_FORMATION('',$,#510);
#506=PRODUCT_RELATED_PRODUCT_CATEGORY('BFM Spigot 1350mm v2',
'BFM Spigot 1350mm v2',(#510));
#507=APPLICATION_PROTOCOL_DEFINITION('international standard',
'automotive_design',2009,#508);
#508=APPLICATION_CONTEXT(
'Core Data for Automotive Mechanical Design Process');
#509=PRODUCT_CONTEXT('part definition',#508,'mechanical');
#510=PRODUCT('BFM Spigot 1350mm','BFM Spigot 1350mm v2',$,(#509));
#511=PRESENTATION_STYLE_ASSIGNMENT((#512));
#512=SURFACE_STYLE_USAGE(.BOTH.,#513);
#513=SURFACE_SIDE_STYLE('',(#514));
#514=SURFACE_STYLE_FILL_AREA(#515);
#515=FILL_AREA_STYLE('Steel - Satin',(#516));
#516=FILL_AREA_STYLE_COLOUR('Steel - Satin',#517);
#517=COLOUR_RGB('Steel - Satin',0.627450980392157,0.627450980392157,0.627450980392157);
ENDSEC;
END-ISO-10303-21;
