ISO-10303-21;
HEADER;
/* Generated by software containing ST-Developer
 * from STEP Tools, Inc. (www.steptools.com) 
 */

FILE_DESCRIPTION(
/* description */ (''),
/* implementation_level */ '2;1');

FILE_NAME(
/* name */ 
'M:/Public/Photos, Drawings, Video/CAD Drawings/BFM Drawings/Standard 
BFM Connectors & Spigots/.STP Files/Spigots/BFM Spigot 1400mm v2.step',

/* time_stamp */ '2021-08-06T08:24:34+12:00',
/* author */ (''),
/* organization */ (''),
/* preprocessor_version */ 'ST-DEVELOPER v18.1',
/* originating_system */ 'Autodesk Translation Framework v10.9.0.1377',

/* authorisation */ '');

FILE_SCHEMA (('AUTOMOTIVE_DESIGN { 1 0 10303 214 3 1 1 }'));
ENDSEC;

DATA;
#10=MECHANICAL_DESIGN_GEOMETRIC_PRESENTATION_REPRESENTATION('',(#13),#520);
#11=SHAPE_REPRESENTATION_RELATIONSHIP('SRR','None',#527,#12);
#12=ADVANCED_BREP_SHAPE_REPRESENTATION('',(#14),#519);
#13=STYLED_ITEM('',(#536),#14);
#14=MANIFOLD_SOLID_BREP('Body14',#286);
#15=FACE_BOUND('',#52,.T.);
#16=FACE_BOUND('',#55,.T.);
#17=FACE_BOUND('',#66,.T.);
#18=PLANE('',#311);
#19=PLANE('',#315);
#20=PLANE('',#335);
#21=CYLINDRICAL_SURFACE('',#303,708.750196493315);
#22=CYLINDRICAL_SURFACE('',#323,711.00000000237);
#23=CYLINDRICAL_SURFACE('',#327,706.750196493315);
#24=CYLINDRICAL_SURFACE('',#331,710.999999999666);
#25=CYLINDRICAL_SURFACE('',#339,712.999999999666);
#26=FACE_OUTER_BOUND('',#46,.T.);
#27=FACE_OUTER_BOUND('',#47,.T.);
#28=FACE_OUTER_BOUND('',#48,.T.);
#29=FACE_OUTER_BOUND('',#49,.T.);
#30=FACE_OUTER_BOUND('',#50,.T.);
#31=FACE_OUTER_BOUND('',#51,.T.);
#32=FACE_OUTER_BOUND('',#53,.T.);
#33=FACE_OUTER_BOUND('',#54,.T.);
#34=FACE_OUTER_BOUND('',#56,.T.);
#35=FACE_OUTER_BOUND('',#57,.T.);
#36=FACE_OUTER_BOUND('',#58,.T.);
#37=FACE_OUTER_BOUND('',#59,.T.);
#38=FACE_OUTER_BOUND('',#60,.T.);
#39=FACE_OUTER_BOUND('',#61,.T.);
#40=FACE_OUTER_BOUND('',#62,.T.);
#41=FACE_OUTER_BOUND('',#63,.T.);
#42=FACE_OUTER_BOUND('',#64,.T.);
#43=FACE_OUTER_BOUND('',#65,.T.);
#44=FACE_OUTER_BOUND('',#67,.T.);
#45=FACE_OUTER_BOUND('',#68,.T.);
#46=EDGE_LOOP('',(#180,#181,#182,#183));
#47=EDGE_LOOP('',(#184,#185,#186,#187));
#48=EDGE_LOOP('',(#188,#189,#190,#191));
#49=EDGE_LOOP('',(#192,#193,#194,#195));
#50=EDGE_LOOP('',(#196,#197,#198,#199));
#51=EDGE_LOOP('',(#200));
#52=EDGE_LOOP('',(#201));
#53=EDGE_LOOP('',(#202,#203,#204,#205));
#54=EDGE_LOOP('',(#206));
#55=EDGE_LOOP('',(#207));
#56=EDGE_LOOP('',(#208,#209,#210,#211));
#57=EDGE_LOOP('',(#212,#213,#214,#215));
#58=EDGE_LOOP('',(#216,#217,#218,#219));
#59=EDGE_LOOP('',(#220,#221,#222,#223));
#60=EDGE_LOOP('',(#224,#225,#226,#227));
#61=EDGE_LOOP('',(#228,#229,#230,#231));
#62=EDGE_LOOP('',(#232,#233,#234,#235));
#63=EDGE_LOOP('',(#236,#237,#238,#239));
#64=EDGE_LOOP('',(#240,#241,#242,#243));
#65=EDGE_LOOP('',(#244));
#66=EDGE_LOOP('',(#245));
#67=EDGE_LOOP('',(#246,#247,#248,#249));
#68=EDGE_LOOP('',(#250,#251,#252,#253));
#69=LINE('',#444,#86);
#70=LINE('',#449,#87);
#71=LINE('',#453,#88);
#72=LINE('',#457,#89);
#73=LINE('',#461,#90);
#74=LINE('',#468,#91);
#75=LINE('',#474,#92);
#76=LINE('',#478,#93);
#77=LINE('',#482,#94);
#78=LINE('',#486,#95);
#79=LINE('',#490,#96);
#80=LINE('',#494,#97);
#81=LINE('',#498,#98);
#82=LINE('',#502,#99);
#83=LINE('',#506,#100);
#84=LINE('',#514,#101);
#85=LINE('',#516,#102);
#86=VECTOR('',#346,710.875098246491);
#87=VECTOR('',#353,708.750196493315);
#88=VECTOR('',#358,710.875098246491);
#89=VECTOR('',#363,712.993320791412);
#90=VECTOR('',#368,710.868419038403);
#91=VECTOR('',#377,703.362598246825);
#92=VECTOR('',#384,701.363968712071);
#93=VECTOR('',#389,704.739066959083);
#94=VECTOR('',#394,708.875098247875);
#95=VECTOR('',#399,711.00000000237);
#96=VECTOR('',#404,708.875098248165);
#97=VECTOR('',#409,706.750196493315);
#98=VECTOR('',#414,708.875098246491);
#99=VECTOR('',#419,710.999999999666);
#100=VECTOR('',#424,708.875098246325);
#101=VECTOR('',#435,710.875098246326);
#102=VECTOR('',#438,712.999999999666);
#103=CIRCLE('',#301,708.750196493315);
#104=CIRCLE('',#302,712.999999999666);
#105=CIRCLE('',#304,708.750196493315);
#106=CIRCLE('',#306,712.999999999667);
#107=CIRCLE('',#308,712.986641583156);
#108=CIRCLE('',#310,708.750196493651);
#109=CIRCLE('',#312,704.725196493651);
#110=CIRCLE('',#314,702.);
#111=CIRCLE('',#316,700.);
#112=CIRCLE('',#318,702.727937424142);
#113=CIRCLE('',#320,706.750196494024);
#114=CIRCLE('',#322,711.000000001726);
#115=CIRCLE('',#324,711.000000003015);
#116=CIRCLE('',#326,706.750196493315);
#117=CIRCLE('',#328,706.750196493315);
#118=CIRCLE('',#330,710.999999999667);
#119=CIRCLE('',#332,710.999999999666);
#120=CIRCLE('',#334,706.750196492985);
#121=CIRCLE('',#336,708.750196492986);
#122=CIRCLE('',#338,712.999999999666);
#123=VERTEX_POINT('',#441);
#124=VERTEX_POINT('',#443);
#125=VERTEX_POINT('',#447);
#126=VERTEX_POINT('',#451);
#127=VERTEX_POINT('',#455);
#128=VERTEX_POINT('',#459);
#129=VERTEX_POINT('',#463);
#130=VERTEX_POINT('',#466);
#131=VERTEX_POINT('',#470);
#132=VERTEX_POINT('',#473);
#133=VERTEX_POINT('',#477);
#134=VERTEX_POINT('',#481);
#135=VERTEX_POINT('',#485);
#136=VERTEX_POINT('',#489);
#137=VERTEX_POINT('',#493);
#138=VERTEX_POINT('',#497);
#139=VERTEX_POINT('',#501);
#140=VERTEX_POINT('',#505);
#141=VERTEX_POINT('',#509);
#142=VERTEX_POINT('',#512);
#143=EDGE_CURVE('',#123,#123,#103,.T.);
#144=EDGE_CURVE('',#123,#124,#69,.T.);
#145=EDGE_CURVE('',#124,#124,#104,.T.);
#146=EDGE_CURVE('',#125,#125,#105,.T.);
#147=EDGE_CURVE('',#125,#123,#70,.T.);
#148=EDGE_CURVE('',#126,#126,#106,.T.);
#149=EDGE_CURVE('',#126,#125,#71,.T.);
#150=EDGE_CURVE('',#127,#127,#107,.T.);
#151=EDGE_CURVE('',#127,#126,#72,.T.);
#152=EDGE_CURVE('',#128,#128,#108,.T.);
#153=EDGE_CURVE('',#128,#127,#73,.T.);
#154=EDGE_CURVE('',#129,#129,#109,.T.);
#155=EDGE_CURVE('',#130,#130,#110,.T.);
#156=EDGE_CURVE('',#130,#129,#74,.T.);
#157=EDGE_CURVE('',#131,#131,#111,.T.);
#158=EDGE_CURVE('',#131,#132,#75,.T.);
#159=EDGE_CURVE('',#132,#132,#112,.T.);
#160=EDGE_CURVE('',#132,#133,#76,.T.);
#161=EDGE_CURVE('',#133,#133,#113,.T.);
#162=EDGE_CURVE('',#133,#134,#77,.T.);
#163=EDGE_CURVE('',#134,#134,#114,.T.);
#164=EDGE_CURVE('',#134,#135,#78,.T.);
#165=EDGE_CURVE('',#135,#135,#115,.T.);
#166=EDGE_CURVE('',#135,#136,#79,.T.);
#167=EDGE_CURVE('',#136,#136,#116,.T.);
#168=EDGE_CURVE('',#136,#137,#80,.T.);
#169=EDGE_CURVE('',#137,#137,#117,.T.);
#170=EDGE_CURVE('',#137,#138,#81,.T.);
#171=EDGE_CURVE('',#138,#138,#118,.T.);
#172=EDGE_CURVE('',#138,#139,#82,.T.);
#173=EDGE_CURVE('',#139,#139,#119,.T.);
#174=EDGE_CURVE('',#139,#140,#83,.T.);
#175=EDGE_CURVE('',#140,#140,#120,.T.);
#176=EDGE_CURVE('',#141,#141,#121,.T.);
#177=EDGE_CURVE('',#142,#142,#122,.T.);
#178=EDGE_CURVE('',#142,#141,#84,.T.);
#179=EDGE_CURVE('',#124,#142,#85,.T.);
#180=ORIENTED_EDGE('',*,*,#143,.F.);
#181=ORIENTED_EDGE('',*,*,#144,.T.);
#182=ORIENTED_EDGE('',*,*,#145,.T.);
#183=ORIENTED_EDGE('',*,*,#144,.F.);
#184=ORIENTED_EDGE('',*,*,#146,.F.);
#185=ORIENTED_EDGE('',*,*,#147,.T.);
#186=ORIENTED_EDGE('',*,*,#143,.T.);
#187=ORIENTED_EDGE('',*,*,#147,.F.);
#188=ORIENTED_EDGE('',*,*,#148,.F.);
#189=ORIENTED_EDGE('',*,*,#149,.T.);
#190=ORIENTED_EDGE('',*,*,#146,.T.);
#191=ORIENTED_EDGE('',*,*,#149,.F.);
#192=ORIENTED_EDGE('',*,*,#150,.F.);
#193=ORIENTED_EDGE('',*,*,#151,.T.);
#194=ORIENTED_EDGE('',*,*,#148,.T.);
#195=ORIENTED_EDGE('',*,*,#151,.F.);
#196=ORIENTED_EDGE('',*,*,#152,.F.);
#197=ORIENTED_EDGE('',*,*,#153,.T.);
#198=ORIENTED_EDGE('',*,*,#150,.T.);
#199=ORIENTED_EDGE('',*,*,#153,.F.);
#200=ORIENTED_EDGE('',*,*,#152,.T.);
#201=ORIENTED_EDGE('',*,*,#154,.F.);
#202=ORIENTED_EDGE('',*,*,#155,.F.);
#203=ORIENTED_EDGE('',*,*,#156,.T.);
#204=ORIENTED_EDGE('',*,*,#154,.T.);
#205=ORIENTED_EDGE('',*,*,#156,.F.);
#206=ORIENTED_EDGE('',*,*,#155,.T.);
#207=ORIENTED_EDGE('',*,*,#157,.F.);
#208=ORIENTED_EDGE('',*,*,#157,.T.);
#209=ORIENTED_EDGE('',*,*,#158,.T.);
#210=ORIENTED_EDGE('',*,*,#159,.F.);
#211=ORIENTED_EDGE('',*,*,#158,.F.);
#212=ORIENTED_EDGE('',*,*,#159,.T.);
#213=ORIENTED_EDGE('',*,*,#160,.T.);
#214=ORIENTED_EDGE('',*,*,#161,.F.);
#215=ORIENTED_EDGE('',*,*,#160,.F.);
#216=ORIENTED_EDGE('',*,*,#161,.T.);
#217=ORIENTED_EDGE('',*,*,#162,.T.);
#218=ORIENTED_EDGE('',*,*,#163,.F.);
#219=ORIENTED_EDGE('',*,*,#162,.F.);
#220=ORIENTED_EDGE('',*,*,#163,.T.);
#221=ORIENTED_EDGE('',*,*,#164,.T.);
#222=ORIENTED_EDGE('',*,*,#165,.F.);
#223=ORIENTED_EDGE('',*,*,#164,.F.);
#224=ORIENTED_EDGE('',*,*,#165,.T.);
#225=ORIENTED_EDGE('',*,*,#166,.T.);
#226=ORIENTED_EDGE('',*,*,#167,.F.);
#227=ORIENTED_EDGE('',*,*,#166,.F.);
#228=ORIENTED_EDGE('',*,*,#167,.T.);
#229=ORIENTED_EDGE('',*,*,#168,.T.);
#230=ORIENTED_EDGE('',*,*,#169,.F.);
#231=ORIENTED_EDGE('',*,*,#168,.F.);
#232=ORIENTED_EDGE('',*,*,#169,.T.);
#233=ORIENTED_EDGE('',*,*,#170,.T.);
#234=ORIENTED_EDGE('',*,*,#171,.F.);
#235=ORIENTED_EDGE('',*,*,#170,.F.);
#236=ORIENTED_EDGE('',*,*,#171,.T.);
#237=ORIENTED_EDGE('',*,*,#172,.T.);
#238=ORIENTED_EDGE('',*,*,#173,.F.);
#239=ORIENTED_EDGE('',*,*,#172,.F.);
#240=ORIENTED_EDGE('',*,*,#173,.T.);
#241=ORIENTED_EDGE('',*,*,#174,.T.);
#242=ORIENTED_EDGE('',*,*,#175,.F.);
#243=ORIENTED_EDGE('',*,*,#174,.F.);
#244=ORIENTED_EDGE('',*,*,#176,.F.);
#245=ORIENTED_EDGE('',*,*,#175,.T.);
#246=ORIENTED_EDGE('',*,*,#177,.F.);
#247=ORIENTED_EDGE('',*,*,#178,.T.);
#248=ORIENTED_EDGE('',*,*,#176,.T.);
#249=ORIENTED_EDGE('',*,*,#178,.F.);
#250=ORIENTED_EDGE('',*,*,#145,.F.);
#251=ORIENTED_EDGE('',*,*,#179,.T.);
#252=ORIENTED_EDGE('',*,*,#177,.T.);
#253=ORIENTED_EDGE('',*,*,#179,.F.);
#254=CONICAL_SURFACE('',#300,710.875098246491,0.785767111030067);
#255=CONICAL_SURFACE('',#305,710.875098246491,0.785029215764828);
#256=CONICAL_SURFACE('',#307,712.993320791412,0.00200268481931691);
#257=CONICAL_SURFACE('',#309,710.868419038403,0.785767111030074);
#258=CONICAL_SURFACE('',#313,703.362598246825,0.0523598775598521);
#259=CONICAL_SURFACE('',#317,701.363968712071,0.0523073450397955);
#260=CONICAL_SURFACE('',#319,704.739066959083,1.13044495383654);
#261=CONICAL_SURFACE('',#321,708.875098247875,1.13044495292682);
#262=CONICAL_SURFACE('',#325,708.875098248165,0.785029215767646);
#263=CONICAL_SURFACE('',#329,708.875098246491,0.785767111030172);
#264=CONICAL_SURFACE('',#333,708.875098246326,0.7829603669332);
#265=CONICAL_SURFACE('',#337,710.875098246326,0.782960366933184);
#266=ADVANCED_FACE('',(#26),#254,.T.);
#267=ADVANCED_FACE('',(#27),#21,.T.);
#268=ADVANCED_FACE('',(#28),#255,.T.);
#269=ADVANCED_FACE('',(#29),#256,.T.);
#270=ADVANCED_FACE('',(#30),#257,.T.);
#271=ADVANCED_FACE('',(#31,#15),#18,.T.);
#272=ADVANCED_FACE('',(#32),#258,.T.);
#273=ADVANCED_FACE('',(#33,#16),#19,.T.);
#274=ADVANCED_FACE('',(#34),#259,.F.);
#275=ADVANCED_FACE('',(#35),#260,.F.);
#276=ADVANCED_FACE('',(#36),#261,.F.);
#277=ADVANCED_FACE('',(#37),#22,.F.);
#278=ADVANCED_FACE('',(#38),#262,.F.);
#279=ADVANCED_FACE('',(#39),#23,.F.);
#280=ADVANCED_FACE('',(#40),#263,.F.);
#281=ADVANCED_FACE('',(#41),#24,.F.);
#282=ADVANCED_FACE('',(#42),#264,.F.);
#283=ADVANCED_FACE('',(#43,#17),#20,.T.);
#284=ADVANCED_FACE('',(#44),#265,.T.);
#285=ADVANCED_FACE('',(#45),#25,.T.);
#286=CLOSED_SHELL('',(#266,#267,#268,#269,#270,#271,#272,#273,#274,#275,
#276,#277,#278,#279,#280,#281,#282,#283,#284,#285));
#287=DERIVED_UNIT_ELEMENT(#289,1.);
#288=DERIVED_UNIT_ELEMENT(#522,-3.);
#289=(
MASS_UNIT()
NAMED_UNIT(*)
SI_UNIT(.KILO.,.GRAM.)
);
#290=DERIVED_UNIT((#287,#288));
#291=MEASURE_REPRESENTATION_ITEM('density measure',
POSITIVE_RATIO_MEASURE(8080.),#290);
#292=PROPERTY_DEFINITION_REPRESENTATION(#297,#294);
#293=PROPERTY_DEFINITION_REPRESENTATION(#298,#295);
#294=REPRESENTATION('material name',(#296),#519);
#295=REPRESENTATION('density',(#291),#519);
#296=DESCRIPTIVE_REPRESENTATION_ITEM('304L Stainless Steel',
'304L Stainless Steel');
#297=PROPERTY_DEFINITION('material property','material name',#529);
#298=PROPERTY_DEFINITION('material property','density of part',#529);
#299=AXIS2_PLACEMENT_3D('placement',#439,#340,#341);
#300=AXIS2_PLACEMENT_3D('',#440,#342,#343);
#301=AXIS2_PLACEMENT_3D('',#442,#344,#345);
#302=AXIS2_PLACEMENT_3D('',#445,#347,#348);
#303=AXIS2_PLACEMENT_3D('',#446,#349,#350);
#304=AXIS2_PLACEMENT_3D('',#448,#351,#352);
#305=AXIS2_PLACEMENT_3D('',#450,#354,#355);
#306=AXIS2_PLACEMENT_3D('',#452,#356,#357);
#307=AXIS2_PLACEMENT_3D('',#454,#359,#360);
#308=AXIS2_PLACEMENT_3D('',#456,#361,#362);
#309=AXIS2_PLACEMENT_3D('',#458,#364,#365);
#310=AXIS2_PLACEMENT_3D('',#460,#366,#367);
#311=AXIS2_PLACEMENT_3D('',#462,#369,#370);
#312=AXIS2_PLACEMENT_3D('',#464,#371,#372);
#313=AXIS2_PLACEMENT_3D('',#465,#373,#374);
#314=AXIS2_PLACEMENT_3D('',#467,#375,#376);
#315=AXIS2_PLACEMENT_3D('',#469,#378,#379);
#316=AXIS2_PLACEMENT_3D('',#471,#380,#381);
#317=AXIS2_PLACEMENT_3D('',#472,#382,#383);
#318=AXIS2_PLACEMENT_3D('',#475,#385,#386);
#319=AXIS2_PLACEMENT_3D('',#476,#387,#388);
#320=AXIS2_PLACEMENT_3D('',#479,#390,#391);
#321=AXIS2_PLACEMENT_3D('',#480,#392,#393);
#322=AXIS2_PLACEMENT_3D('',#483,#395,#396);
#323=AXIS2_PLACEMENT_3D('',#484,#397,#398);
#324=AXIS2_PLACEMENT_3D('',#487,#400,#401);
#325=AXIS2_PLACEMENT_3D('',#488,#402,#403);
#326=AXIS2_PLACEMENT_3D('',#491,#405,#406);
#327=AXIS2_PLACEMENT_3D('',#492,#407,#408);
#328=AXIS2_PLACEMENT_3D('',#495,#410,#411);
#329=AXIS2_PLACEMENT_3D('',#496,#412,#413);
#330=AXIS2_PLACEMENT_3D('',#499,#415,#416);
#331=AXIS2_PLACEMENT_3D('',#500,#417,#418);
#332=AXIS2_PLACEMENT_3D('',#503,#420,#421);
#333=AXIS2_PLACEMENT_3D('',#504,#422,#423);
#334=AXIS2_PLACEMENT_3D('',#507,#425,#426);
#335=AXIS2_PLACEMENT_3D('',#508,#427,#428);
#336=AXIS2_PLACEMENT_3D('',#510,#429,#430);
#337=AXIS2_PLACEMENT_3D('',#511,#431,#432);
#338=AXIS2_PLACEMENT_3D('',#513,#433,#434);
#339=AXIS2_PLACEMENT_3D('',#515,#436,#437);
#340=DIRECTION('axis',(0.,0.,1.));
#341=DIRECTION('refdir',(1.,0.,0.));
#342=DIRECTION('center_axis',(0.,1.,0.));
#343=DIRECTION('ref_axis',(1.,0.,0.));
#344=DIRECTION('center_axis',(0.,-1.,0.));
#345=DIRECTION('ref_axis',(1.,0.,0.));
#346=DIRECTION('',(-0.707367618427036,0.706845847693019,-8.66275489727156E-17));
#347=DIRECTION('center_axis',(0.,-1.,0.));
#348=DIRECTION('ref_axis',(1.,0.,0.));
#349=DIRECTION('center_axis',(0.,-1.,0.));
#350=DIRECTION('ref_axis',(1.,0.,0.));
#351=DIRECTION('center_axis',(0.,-1.,0.));
#352=DIRECTION('ref_axis',(1.,0.,0.));
#353=DIRECTION('',(0.,1.,0.));
#354=DIRECTION('center_axis',(0.,-1.,0.));
#355=DIRECTION('ref_axis',(1.,0.,0.));
#356=DIRECTION('center_axis',(0.,-1.,0.));
#357=DIRECTION('ref_axis',(1.,0.,0.));
#358=DIRECTION('',(0.706845847693018,0.707367618427037,8.65636504867852E-17));
#359=DIRECTION('center_axis',(0.,1.,0.));
#360=DIRECTION('ref_axis',(1.,0.,0.));
#361=DIRECTION('center_axis',(0.,-1.,0.));
#362=DIRECTION('ref_axis',(1.,0.,0.));
#363=DIRECTION('',(-0.002002683480607,0.999997994627427,-2.45257991423064E-19));
#364=DIRECTION('center_axis',(0.,1.,0.));
#365=DIRECTION('ref_axis',(1.,0.,0.));
#366=DIRECTION('center_axis',(0.,-1.,0.));
#367=DIRECTION('ref_axis',(1.,0.,0.));
#368=DIRECTION('',(-0.707367618427041,0.706845847693014,-8.66275489727162E-17));
#369=DIRECTION('center_axis',(0.,-1.,0.));
#370=DIRECTION('ref_axis',(0.,0.,-1.));
#371=DIRECTION('center_axis',(0.,-1.,0.));
#372=DIRECTION('ref_axis',(1.,0.,0.));
#373=DIRECTION('center_axis',(0.,1.,0.));
#374=DIRECTION('ref_axis',(1.,0.,0.));
#375=DIRECTION('center_axis',(0.,-1.,0.));
#376=DIRECTION('ref_axis',(1.,0.,0.));
#377=DIRECTION('',(-0.052335956242966,0.998629534754573,-6.40930612932642E-18));
#378=DIRECTION('center_axis',(0.,-1.,0.));
#379=DIRECTION('ref_axis',(0.,0.,-1.));
#380=DIRECTION('center_axis',(0.,-1.,0.));
#381=DIRECTION('ref_axis',(1.,0.,0.));
#382=DIRECTION('center_axis',(0.,1.,0.));
#383=DIRECTION('ref_axis',(1.,0.,0.));
#384=DIRECTION('',(-0.0522834956447117,0.998632282716301,-6.40288155895307E-18));
#385=DIRECTION('center_axis',(0.,-1.,0.));
#386=DIRECTION('ref_axis',(1.,0.,0.));
#387=DIRECTION('center_axis',(0.,1.,0.));
#388=DIRECTION('ref_axis',(1.,0.,0.));
#389=DIRECTION('',(-0.904601943761467,0.426257344034066,-1.10781787492995E-16));
#390=DIRECTION('center_axis',(0.,-1.,0.));
#391=DIRECTION('ref_axis',(1.,0.,0.));
#392=DIRECTION('center_axis',(0.,1.,0.));
#393=DIRECTION('ref_axis',(1.,0.,0.));
#394=DIRECTION('',(-0.904601943373689,0.426257344857007,-1.10781787445506E-16));
#395=DIRECTION('center_axis',(0.,-1.,0.));
#396=DIRECTION('ref_axis',(1.,0.,0.));
#397=DIRECTION('center_axis',(0.,-1.,0.));
#398=DIRECTION('ref_axis',(1.,0.,0.));
#399=DIRECTION('',(0.,1.,0.));
#400=DIRECTION('center_axis',(0.,-1.,0.));
#401=DIRECTION('ref_axis',(1.,0.,0.));
#402=DIRECTION('center_axis',(0.,-1.,0.));
#403=DIRECTION('ref_axis',(1.,0.,0.));
#404=DIRECTION('',(0.706845847695011,0.707367618425046,8.65636504870292E-17));
#405=DIRECTION('center_axis',(0.,-1.,0.));
#406=DIRECTION('ref_axis',(1.,0.,0.));
#407=DIRECTION('center_axis',(0.,-1.,0.));
#408=DIRECTION('ref_axis',(1.,0.,0.));
#409=DIRECTION('',(0.,1.,0.));
#410=DIRECTION('center_axis',(0.,-1.,0.));
#411=DIRECTION('ref_axis',(1.,0.,0.));
#412=DIRECTION('center_axis',(0.,1.,0.));
#413=DIRECTION('ref_axis',(1.,0.,0.));
#414=DIRECTION('',(-0.707367618427111,0.706845847692945,-8.66275489727247E-17));
#415=DIRECTION('center_axis',(0.,-1.,0.));
#416=DIRECTION('ref_axis',(1.,0.,0.));
#417=DIRECTION('center_axis',(0.,-1.,0.));
#418=DIRECTION('ref_axis',(1.,0.,0.));
#419=DIRECTION('',(0.,1.,0.));
#420=DIRECTION('center_axis',(0.,-1.,0.));
#421=DIRECTION('ref_axis',(1.,0.,0.));
#422=DIRECTION('center_axis',(0.,-1.,0.));
#423=DIRECTION('ref_axis',(1.,0.,0.));
#424=DIRECTION('',(0.705380899368596,0.708828460775914,8.63842460591432E-17));
#425=DIRECTION('center_axis',(0.,-1.,0.));
#426=DIRECTION('ref_axis',(1.,0.,0.));
#427=DIRECTION('center_axis',(0.,1.,0.));
#428=DIRECTION('ref_axis',(0.,0.,1.));
#429=DIRECTION('center_axis',(0.,-1.,0.));
#430=DIRECTION('ref_axis',(1.,0.,0.));
#431=DIRECTION('center_axis',(0.,-1.,0.));
#432=DIRECTION('ref_axis',(1.,0.,0.));
#433=DIRECTION('center_axis',(0.,-1.,0.));
#434=DIRECTION('ref_axis',(1.,0.,0.));
#435=DIRECTION('',(0.705380899368584,0.708828460775925,8.63842460591417E-17));
#436=DIRECTION('center_axis',(0.,-1.,0.));
#437=DIRECTION('ref_axis',(1.,0.,0.));
#438=DIRECTION('',(0.,1.,0.));
#439=CARTESIAN_POINT('',(0.,0.,0.));
#440=CARTESIAN_POINT('Origin',(0.,75.9428532434069,0.));
#441=CARTESIAN_POINT('',(-708.750196493315,73.8195188669656,-8.67968659530596E-14));
#442=CARTESIAN_POINT('Origin',(0.,73.8195188669656,0.));
#443=CARTESIAN_POINT('',(-712.999999999666,78.0661876198483,-8.73173167791654E-14));
#444=CARTESIAN_POINT('',(-710.875098246491,75.9428532434069,-8.70570913661125E-14));
#445=CARTESIAN_POINT('Origin',(0.,78.0661876198483,0.));
#446=CARTESIAN_POINT('Origin',(0.,70.4879357756027,0.));
#447=CARTESIAN_POINT('',(-708.750196493315,67.1563526842399,-8.67968659530596E-14));
#448=CARTESIAN_POINT('Origin',(0.,67.1563526842399,0.));
#449=CARTESIAN_POINT('',(-708.750196493315,70.4879357756027,-8.67968659530596E-14));
#450=CARTESIAN_POINT('Origin',(0.,65.0298823973431,0.));
#451=CARTESIAN_POINT('',(-712.999999999667,62.9034121104464,-8.73173167791655E-14));
#452=CARTESIAN_POINT('Origin',(0.,62.9034121104464,0.));
#453=CARTESIAN_POINT('',(-710.875098246491,65.0298823973431,-8.70570913661126E-14));
#454=CARTESIAN_POINT('Origin',(0.,59.5682895481038,0.));
#455=CARTESIAN_POINT('',(-712.986641583156,56.2331669857611,-8.73156808449633E-14));
#456=CARTESIAN_POINT('Origin',(0.,56.2331669857611,0.));
#457=CARTESIAN_POINT('',(-712.993320791412,59.5682895481038,-8.73164988120644E-14));
#458=CARTESIAN_POINT('Origin',(0.,54.1165068910038,0.));
#459=CARTESIAN_POINT('',(-708.750196493651,51.9998467962465,-8.67968659531007E-14));
#460=CARTESIAN_POINT('Origin',(0.,51.9998467962465,0.));
#461=CARTESIAN_POINT('',(-710.868419038403,54.1165068910038,-8.7056273399032E-14));
#462=CARTESIAN_POINT('Origin',(704.725196493651,51.9998467962465,0.));
#463=CARTESIAN_POINT('',(-704.725196493651,51.9998467962465,-8.63039456164439E-14));
#464=CARTESIAN_POINT('Origin',(0.,51.9998467962465,0.));
#465=CARTESIAN_POINT('Origin',(0.,25.9999233981232,0.));
#466=CARTESIAN_POINT('',(-702.,-8.88178419700125E-15,-8.59702053001442E-14));
#467=CARTESIAN_POINT('Origin',(0.,0.,0.));
#468=CARTESIAN_POINT('',(-703.362598246825,25.9999233981232,-8.6137075458294E-14));
#469=CARTESIAN_POINT('Origin',(700.,7.6006474782722E-31,0.));
#470=CARTESIAN_POINT('',(-700.,0.,-8.57252759403147E-14));
#471=CARTESIAN_POINT('Origin',(0.,0.,0.));
#472=CARTESIAN_POINT('Origin',(0.,26.0522593543662,0.));
#473=CARTESIAN_POINT('',(-702.727937424142,52.1045187087324,-8.60593519237897E-14));
#474=CARTESIAN_POINT('',(-701.363968712071,26.0522593543662,-8.58923139320522E-14));
#475=CARTESIAN_POINT('Origin',(0.,52.1045187087324,0.));
#476=CARTESIAN_POINT('Origin',(0.,53.0521827503417,0.));
#477=CARTESIAN_POINT('',(-706.750196494024,53.9998467919509,-8.6551936593317E-14));
#478=CARTESIAN_POINT('',(-704.739066959083,53.0521827503417,-8.63056442585533E-14));
#479=CARTESIAN_POINT('Origin',(0.,53.9998467919509,0.));
#480=CARTESIAN_POINT('Origin',(0.,55.0011214258527,0.));
#481=CARTESIAN_POINT('',(-711.000000001726,56.0023960597545,-8.70723874195881E-14));
#482=CARTESIAN_POINT('',(-708.875098247875,55.0011214258527,-8.68121620064526E-14));
#483=CARTESIAN_POINT('Origin',(0.,56.0023960597545,0.));
#484=CARTESIAN_POINT('Origin',(0.,59.4529040834375,0.));
#485=CARTESIAN_POINT('',(-711.00000000237,62.9034121071204,-8.70723874196671E-14));
#486=CARTESIAN_POINT('',(-711.00000000237,59.4529040834375,-8.70723874196671E-14));
#487=CARTESIAN_POINT('Origin',(0.,62.9034121071204,0.));
#488=CARTESIAN_POINT('Origin',(0.,65.0298823956801,0.));
#489=CARTESIAN_POINT('',(-706.750196493315,67.1563526842399,-8.65519365932301E-14));
#490=CARTESIAN_POINT('',(-708.875098248165,65.0298823956801,-8.6812162006488E-14));
#491=CARTESIAN_POINT('Origin',(0.,67.1563526842399,0.));
#492=CARTESIAN_POINT('Origin',(0.,70.4879357756027,0.));
#493=CARTESIAN_POINT('',(-706.750196493315,73.8195188669656,-8.65519365932301E-14));
#494=CARTESIAN_POINT('',(-706.750196493315,70.4879357756027,-8.65519365932301E-14));
#495=CARTESIAN_POINT('Origin',(0.,73.8195188669656,0.));
#496=CARTESIAN_POINT('Origin',(0.,75.9428532434071,0.));
#497=CARTESIAN_POINT('',(-710.999999999667,78.0661876198485,-8.7072387419336E-14));
#498=CARTESIAN_POINT('',(-708.875098246491,75.9428532434071,-8.68121620062831E-14));
#499=CARTESIAN_POINT('Origin',(0.,78.0661876198485,0.));
#500=CARTESIAN_POINT('Origin',(0.,81.3977299604507,0.));
#501=CARTESIAN_POINT('',(-710.999999999666,84.729272301053,-8.70723874193359E-14));
#502=CARTESIAN_POINT('',(-710.999999999666,81.3977299604507,-8.70723874193359E-14));
#503=CARTESIAN_POINT('Origin',(0.,84.729272301053,0.));
#504=CARTESIAN_POINT('Origin',(0.,86.8645595486498,0.));
#505=CARTESIAN_POINT('',(-706.750196492985,88.9998467962467,-8.65519365931898E-14));
#506=CARTESIAN_POINT('',(-708.875098246326,86.8645595486498,-8.68121620062628E-14));
#507=CARTESIAN_POINT('Origin',(0.,88.9998467962467,0.));
#508=CARTESIAN_POINT('Origin',(708.750196492986,88.9998467962467,0.));
#509=CARTESIAN_POINT('',(-708.750196492986,88.9998467962467,-8.67968659530192E-14));
#510=CARTESIAN_POINT('Origin',(0.,88.9998467962467,0.));
#511=CARTESIAN_POINT('Origin',(0.,86.8645595486498,0.));
#512=CARTESIAN_POINT('',(-712.999999999666,84.729272301053,-8.73173167791654E-14));
#513=CARTESIAN_POINT('Origin',(0.,84.729272301053,0.));
#514=CARTESIAN_POINT('',(-710.875098246326,86.8645595486498,-8.70570913660923E-14));
#515=CARTESIAN_POINT('Origin',(0.,81.3977299604506,0.));
#516=CARTESIAN_POINT('',(-712.999999999666,81.3977299604506,-8.73173167791654E-14));
#517=UNCERTAINTY_MEASURE_WITH_UNIT(LENGTH_MEASURE(0.01),#521,
'DISTANCE_ACCURACY_VALUE',
'Maximum model space distance between geometric entities at asserted c
onnectivities');
#518=UNCERTAINTY_MEASURE_WITH_UNIT(LENGTH_MEASURE(0.01),#521,
'DISTANCE_ACCURACY_VALUE',
'Maximum model space distance between geometric entities at asserted c
onnectivities');
#519=(
GEOMETRIC_REPRESENTATION_CONTEXT(3)
GLOBAL_UNCERTAINTY_ASSIGNED_CONTEXT((#517))
GLOBAL_UNIT_ASSIGNED_CONTEXT((#521,#523,#524))
REPRESENTATION_CONTEXT('','3D')
);
#520=(
GEOMETRIC_REPRESENTATION_CONTEXT(3)
GLOBAL_UNCERTAINTY_ASSIGNED_CONTEXT((#518))
GLOBAL_UNIT_ASSIGNED_CONTEXT((#521,#523,#524))
REPRESENTATION_CONTEXT('','3D')
);
#521=(
LENGTH_UNIT()
NAMED_UNIT(*)
SI_UNIT(.MILLI.,.METRE.)
);
#522=(
LENGTH_UNIT()
NAMED_UNIT(*)
SI_UNIT($,.METRE.)
);
#523=(
NAMED_UNIT(*)
PLANE_ANGLE_UNIT()
SI_UNIT($,.RADIAN.)
);
#524=(
NAMED_UNIT(*)
SI_UNIT($,.STERADIAN.)
SOLID_ANGLE_UNIT()
);
#525=SHAPE_DEFINITION_REPRESENTATION(#526,#527);
#526=PRODUCT_DEFINITION_SHAPE('',$,#529);
#527=SHAPE_REPRESENTATION('',(#299),#519);
#528=PRODUCT_DEFINITION_CONTEXT('part definition',#533,'design');
#529=PRODUCT_DEFINITION('BFM Spigot 1400mm','BFM Spigot 1400mm v1',#530,
#528);
#530=PRODUCT_DEFINITION_FORMATION('',$,#535);
#531=PRODUCT_RELATED_PRODUCT_CATEGORY('BFM Spigot 1400mm v1',
'BFM Spigot 1400mm v1',(#535));
#532=APPLICATION_PROTOCOL_DEFINITION('international standard',
'automotive_design',2009,#533);
#533=APPLICATION_CONTEXT(
'Core Data for Automotive Mechanical Design Process');
#534=PRODUCT_CONTEXT('part definition',#533,'mechanical');
#535=PRODUCT('BFM Spigot 1400mm','BFM Spigot 1400mm v1',$,(#534));
#536=PRESENTATION_STYLE_ASSIGNMENT((#537));
#537=SURFACE_STYLE_USAGE(.BOTH.,#538);
#538=SURFACE_SIDE_STYLE('',(#539));
#539=SURFACE_STYLE_FILL_AREA(#540);
#540=FILL_AREA_STYLE('Steel - Satin',(#541));
#541=FILL_AREA_STYLE_COLOUR('Steel - Satin',#542);
#542=COLOUR_RGB('Steel - Satin',0.627450980392157,0.627450980392157,0.627450980392157);
ENDSEC;
END-ISO-10303-21;
