ISO-10303-21;
HEADER;
/* Generated by software containing ST-Developer
 * from STEP Tools, Inc. (www.steptools.com) 
 */

FILE_DESCRIPTION(
/* description */ (''),
/* implementation_level */ '2;1');

FILE_NAME(
/* name */ 
'M:/Public/Photos, Drawings, Video/CAD Drawings/BFM Drawings/Standard 
BFM Connectors & Spigots/.STP Files/Spigots/BFM Spigot 1600mm v2.step',

/* time_stamp */ '2021-08-06T08:27:34+12:00',
/* author */ (''),
/* organization */ (''),
/* preprocessor_version */ 'ST-DEVELOPER v18.1',
/* originating_system */ 'Autodesk Translation Framework v10.9.0.1377',

/* authorisation */ '');

FILE_SCHEMA (('AUTOMOTIVE_DESIGN { 1 0 10303 214 3 1 1 }'));
ENDSEC;

DATA;
#10=MECHANICAL_DESIGN_GEOMETRIC_PRESENTATION_REPRESENTATION('',(#13),#495);
#11=SHAPE_REPRESENTATION_RELATIONSHIP('SRR','None',#502,#12);
#12=ADVANCED_BREP_SHAPE_REPRESENTATION('',(#14),#494);
#13=STYLED_ITEM('',(#511),#14);
#14=MANIFOLD_SOLID_BREP('Body18',#272);
#15=CYLINDRICAL_SURFACE('',#299,806.750206922549);
#16=CYLINDRICAL_SURFACE('',#303,811.000005785339);
#17=CYLINDRICAL_SURFACE('',#311,813.000005785222);
#18=CYLINDRICAL_SURFACE('',#315,808.750206922198);
#19=FACE_BOUND('',#46,.T.);
#20=FACE_BOUND('',#56,.T.);
#21=FACE_BOUND('',#65,.T.);
#22=PLANE('',#289);
#23=PLANE('',#307);
#24=PLANE('',#323);
#25=FACE_OUTER_BOUND('',#44,.T.);
#26=FACE_OUTER_BOUND('',#45,.T.);
#27=FACE_OUTER_BOUND('',#47,.T.);
#28=FACE_OUTER_BOUND('',#48,.T.);
#29=FACE_OUTER_BOUND('',#49,.T.);
#30=FACE_OUTER_BOUND('',#50,.T.);
#31=FACE_OUTER_BOUND('',#51,.T.);
#32=FACE_OUTER_BOUND('',#52,.T.);
#33=FACE_OUTER_BOUND('',#53,.T.);
#34=FACE_OUTER_BOUND('',#54,.T.);
#35=FACE_OUTER_BOUND('',#55,.T.);
#36=FACE_OUTER_BOUND('',#57,.T.);
#37=FACE_OUTER_BOUND('',#58,.T.);
#38=FACE_OUTER_BOUND('',#59,.T.);
#39=FACE_OUTER_BOUND('',#60,.T.);
#40=FACE_OUTER_BOUND('',#61,.T.);
#41=FACE_OUTER_BOUND('',#62,.T.);
#42=FACE_OUTER_BOUND('',#63,.T.);
#43=FACE_OUTER_BOUND('',#64,.T.);
#44=EDGE_LOOP('',(#171,#172,#173,#174));
#45=EDGE_LOOP('',(#175));
#46=EDGE_LOOP('',(#176));
#47=EDGE_LOOP('',(#177,#178,#179,#180));
#48=EDGE_LOOP('',(#181,#182,#183,#184));
#49=EDGE_LOOP('',(#185,#186,#187,#188));
#50=EDGE_LOOP('',(#189,#190,#191,#192));
#51=EDGE_LOOP('',(#193,#194,#195,#196));
#52=EDGE_LOOP('',(#197,#198,#199,#200));
#53=EDGE_LOOP('',(#201,#202,#203,#204));
#54=EDGE_LOOP('',(#205,#206,#207,#208));
#55=EDGE_LOOP('',(#209));
#56=EDGE_LOOP('',(#210));
#57=EDGE_LOOP('',(#211,#212,#213,#214));
#58=EDGE_LOOP('',(#215,#216,#217,#218));
#59=EDGE_LOOP('',(#219,#220,#221,#222));
#60=EDGE_LOOP('',(#223,#224,#225,#226));
#61=EDGE_LOOP('',(#227,#228,#229,#230));
#62=EDGE_LOOP('',(#231,#232,#233,#234));
#63=EDGE_LOOP('',(#235,#236,#237,#238));
#64=EDGE_LOOP('',(#239));
#65=EDGE_LOOP('',(#240));
#66=LINE('',#423,#82);
#67=LINE('',#430,#83);
#68=LINE('',#434,#84);
#69=LINE('',#438,#85);
#70=LINE('',#442,#86);
#71=LINE('',#446,#87);
#72=LINE('',#450,#88);
#73=LINE('',#454,#89);
#74=LINE('',#458,#90);
#75=LINE('',#466,#91);
#76=LINE('',#470,#92);
#77=LINE('',#474,#93);
#78=LINE('',#478,#94);
#79=LINE('',#482,#95);
#80=LINE('',#486,#96);
#81=LINE('',#490,#97);
#82=VECTOR('',#330,803.362596106967);
#83=VECTOR('',#339,801.363966572211);
#84=VECTOR('',#344,806.863963062468);
#85=VECTOR('',#349,811.000004251479);
#86=VECTOR('',#354,808.875111222692);
#87=VECTOR('',#359,806.750206922549);
#88=VECTOR('',#364,808.875106352547);
#89=VECTOR('',#369,811.000005785339);
#90=VECTOR('',#374,808.875141879739);
#91=VECTOR('',#385,810.875141879698);
#92=VECTOR('',#390,813.000005785222);
#93=VECTOR('',#395,810.875106352472);
#94=VECTOR('',#400,808.750206922198);
#95=VECTOR('',#405,810.875111002274);
#96=VECTOR('',#410,812.993324687905);
#97=VECTOR('',#415,810.868413253694);
#98=CIRCLE('',#287,802.);
#99=CIRCLE('',#288,804.725192213934);
#100=CIRCLE('',#290,800.);
#101=CIRCLE('',#292,802.727933144422);
#102=CIRCLE('',#294,810.999992980473);
#103=CIRCLE('',#296,811.000015522485);
#104=CIRCLE('',#298,806.750206922899);
#105=CIRCLE('',#300,806.750206922199);
#106=CIRCLE('',#302,811.000005782895);
#107=CIRCLE('',#304,811.000005787783);
#108=CIRCLE('',#306,806.750277971696);
#109=CIRCLE('',#308,808.750277971697);
#110=CIRCLE('',#310,813.000005787698);
#111=CIRCLE('',#312,813.000005782746);
#112=CIRCLE('',#314,808.750206922198);
#113=CIRCLE('',#316,808.750206922198);
#114=CIRCLE('',#318,813.000015082351);
#115=CIRCLE('',#320,812.986634293458);
#116=CIRCLE('',#322,808.75019221393);
#117=VERTEX_POINT('',#420);
#118=VERTEX_POINT('',#422);
#119=VERTEX_POINT('',#426);
#120=VERTEX_POINT('',#429);
#121=VERTEX_POINT('',#433);
#122=VERTEX_POINT('',#437);
#123=VERTEX_POINT('',#441);
#124=VERTEX_POINT('',#445);
#125=VERTEX_POINT('',#449);
#126=VERTEX_POINT('',#453);
#127=VERTEX_POINT('',#457);
#128=VERTEX_POINT('',#461);
#129=VERTEX_POINT('',#464);
#130=VERTEX_POINT('',#468);
#131=VERTEX_POINT('',#472);
#132=VERTEX_POINT('',#476);
#133=VERTEX_POINT('',#480);
#134=VERTEX_POINT('',#484);
#135=VERTEX_POINT('',#488);
#136=EDGE_CURVE('',#117,#117,#98,.T.);
#137=EDGE_CURVE('',#117,#118,#66,.T.);
#138=EDGE_CURVE('',#118,#118,#99,.T.);
#139=EDGE_CURVE('',#119,#119,#100,.T.);
#140=EDGE_CURVE('',#119,#120,#67,.T.);
#141=EDGE_CURVE('',#120,#120,#101,.T.);
#142=EDGE_CURVE('',#120,#121,#68,.T.);
#143=EDGE_CURVE('',#121,#121,#102,.T.);
#144=EDGE_CURVE('',#121,#122,#69,.T.);
#145=EDGE_CURVE('',#122,#122,#103,.T.);
#146=EDGE_CURVE('',#122,#123,#70,.T.);
#147=EDGE_CURVE('',#123,#123,#104,.T.);
#148=EDGE_CURVE('',#123,#124,#71,.T.);
#149=EDGE_CURVE('',#124,#124,#105,.T.);
#150=EDGE_CURVE('',#124,#125,#72,.T.);
#151=EDGE_CURVE('',#125,#125,#106,.T.);
#152=EDGE_CURVE('',#125,#126,#73,.T.);
#153=EDGE_CURVE('',#126,#126,#107,.T.);
#154=EDGE_CURVE('',#126,#127,#74,.T.);
#155=EDGE_CURVE('',#127,#127,#108,.T.);
#156=EDGE_CURVE('',#128,#128,#109,.T.);
#157=EDGE_CURVE('',#129,#129,#110,.T.);
#158=EDGE_CURVE('',#129,#128,#75,.T.);
#159=EDGE_CURVE('',#130,#130,#111,.T.);
#160=EDGE_CURVE('',#130,#129,#76,.T.);
#161=EDGE_CURVE('',#131,#131,#112,.T.);
#162=EDGE_CURVE('',#131,#130,#77,.T.);
#163=EDGE_CURVE('',#132,#132,#113,.T.);
#164=EDGE_CURVE('',#132,#131,#78,.T.);
#165=EDGE_CURVE('',#133,#133,#114,.T.);
#166=EDGE_CURVE('',#133,#132,#79,.T.);
#167=EDGE_CURVE('',#134,#134,#115,.T.);
#168=EDGE_CURVE('',#134,#133,#80,.T.);
#169=EDGE_CURVE('',#135,#135,#116,.T.);
#170=EDGE_CURVE('',#135,#134,#81,.T.);
#171=ORIENTED_EDGE('',*,*,#136,.F.);
#172=ORIENTED_EDGE('',*,*,#137,.T.);
#173=ORIENTED_EDGE('',*,*,#138,.T.);
#174=ORIENTED_EDGE('',*,*,#137,.F.);
#175=ORIENTED_EDGE('',*,*,#136,.T.);
#176=ORIENTED_EDGE('',*,*,#139,.F.);
#177=ORIENTED_EDGE('',*,*,#139,.T.);
#178=ORIENTED_EDGE('',*,*,#140,.T.);
#179=ORIENTED_EDGE('',*,*,#141,.F.);
#180=ORIENTED_EDGE('',*,*,#140,.F.);
#181=ORIENTED_EDGE('',*,*,#141,.T.);
#182=ORIENTED_EDGE('',*,*,#142,.T.);
#183=ORIENTED_EDGE('',*,*,#143,.F.);
#184=ORIENTED_EDGE('',*,*,#142,.F.);
#185=ORIENTED_EDGE('',*,*,#143,.T.);
#186=ORIENTED_EDGE('',*,*,#144,.T.);
#187=ORIENTED_EDGE('',*,*,#145,.F.);
#188=ORIENTED_EDGE('',*,*,#144,.F.);
#189=ORIENTED_EDGE('',*,*,#145,.T.);
#190=ORIENTED_EDGE('',*,*,#146,.T.);
#191=ORIENTED_EDGE('',*,*,#147,.F.);
#192=ORIENTED_EDGE('',*,*,#146,.F.);
#193=ORIENTED_EDGE('',*,*,#147,.T.);
#194=ORIENTED_EDGE('',*,*,#148,.T.);
#195=ORIENTED_EDGE('',*,*,#149,.F.);
#196=ORIENTED_EDGE('',*,*,#148,.F.);
#197=ORIENTED_EDGE('',*,*,#149,.T.);
#198=ORIENTED_EDGE('',*,*,#150,.T.);
#199=ORIENTED_EDGE('',*,*,#151,.F.);
#200=ORIENTED_EDGE('',*,*,#150,.F.);
#201=ORIENTED_EDGE('',*,*,#151,.T.);
#202=ORIENTED_EDGE('',*,*,#152,.T.);
#203=ORIENTED_EDGE('',*,*,#153,.F.);
#204=ORIENTED_EDGE('',*,*,#152,.F.);
#205=ORIENTED_EDGE('',*,*,#153,.T.);
#206=ORIENTED_EDGE('',*,*,#154,.T.);
#207=ORIENTED_EDGE('',*,*,#155,.F.);
#208=ORIENTED_EDGE('',*,*,#154,.F.);
#209=ORIENTED_EDGE('',*,*,#156,.F.);
#210=ORIENTED_EDGE('',*,*,#155,.T.);
#211=ORIENTED_EDGE('',*,*,#157,.F.);
#212=ORIENTED_EDGE('',*,*,#158,.T.);
#213=ORIENTED_EDGE('',*,*,#156,.T.);
#214=ORIENTED_EDGE('',*,*,#158,.F.);
#215=ORIENTED_EDGE('',*,*,#159,.F.);
#216=ORIENTED_EDGE('',*,*,#160,.T.);
#217=ORIENTED_EDGE('',*,*,#157,.T.);
#218=ORIENTED_EDGE('',*,*,#160,.F.);
#219=ORIENTED_EDGE('',*,*,#161,.F.);
#220=ORIENTED_EDGE('',*,*,#162,.T.);
#221=ORIENTED_EDGE('',*,*,#159,.T.);
#222=ORIENTED_EDGE('',*,*,#162,.F.);
#223=ORIENTED_EDGE('',*,*,#163,.F.);
#224=ORIENTED_EDGE('',*,*,#164,.T.);
#225=ORIENTED_EDGE('',*,*,#161,.T.);
#226=ORIENTED_EDGE('',*,*,#164,.F.);
#227=ORIENTED_EDGE('',*,*,#165,.F.);
#228=ORIENTED_EDGE('',*,*,#166,.T.);
#229=ORIENTED_EDGE('',*,*,#163,.T.);
#230=ORIENTED_EDGE('',*,*,#166,.F.);
#231=ORIENTED_EDGE('',*,*,#167,.F.);
#232=ORIENTED_EDGE('',*,*,#168,.T.);
#233=ORIENTED_EDGE('',*,*,#165,.T.);
#234=ORIENTED_EDGE('',*,*,#168,.F.);
#235=ORIENTED_EDGE('',*,*,#169,.F.);
#236=ORIENTED_EDGE('',*,*,#170,.T.);
#237=ORIENTED_EDGE('',*,*,#167,.T.);
#238=ORIENTED_EDGE('',*,*,#170,.F.);
#239=ORIENTED_EDGE('',*,*,#169,.T.);
#240=ORIENTED_EDGE('',*,*,#138,.F.);
#241=CONICAL_SURFACE('',#286,803.362596106967,0.0523598775598596);
#242=CONICAL_SURFACE('',#291,801.363966572211,0.0523073449574284);
#243=CONICAL_SURFACE('',#293,806.863963062467,1.13044425012913);
#244=CONICAL_SURFACE('',#295,811.000004251479,3.2664771880413E-6);
#245=CONICAL_SURFACE('',#297,808.875111222692,0.785030309641212);
#246=CONICAL_SURFACE('',#301,808.875106352547,0.785766016944971);
#247=CONICAL_SURFACE('',#305,808.875141879739,0.782942633403555);
#248=CONICAL_SURFACE('',#309,810.875141879698,0.782942633329261);
#249=CONICAL_SURFACE('',#313,810.875106352472,0.785766017025909);
#250=CONICAL_SURFACE('',#317,810.875111002274,0.785030309965097);
#251=CONICAL_SURFACE('',#319,812.993324687905,0.00200603886269231);
#252=CONICAL_SURFACE('',#321,810.868413253694,0.785766016846077);
#253=ADVANCED_FACE('',(#25),#241,.T.);
#254=ADVANCED_FACE('',(#26,#19),#22,.T.);
#255=ADVANCED_FACE('',(#27),#242,.F.);
#256=ADVANCED_FACE('',(#28),#243,.F.);
#257=ADVANCED_FACE('',(#29),#244,.F.);
#258=ADVANCED_FACE('',(#30),#245,.F.);
#259=ADVANCED_FACE('',(#31),#15,.F.);
#260=ADVANCED_FACE('',(#32),#246,.F.);
#261=ADVANCED_FACE('',(#33),#16,.F.);
#262=ADVANCED_FACE('',(#34),#247,.F.);
#263=ADVANCED_FACE('',(#35,#20),#23,.T.);
#264=ADVANCED_FACE('',(#36),#248,.T.);
#265=ADVANCED_FACE('',(#37),#17,.T.);
#266=ADVANCED_FACE('',(#38),#249,.T.);
#267=ADVANCED_FACE('',(#39),#18,.T.);
#268=ADVANCED_FACE('',(#40),#250,.T.);
#269=ADVANCED_FACE('',(#41),#251,.T.);
#270=ADVANCED_FACE('',(#42),#252,.T.);
#271=ADVANCED_FACE('',(#43,#21),#24,.T.);
#272=CLOSED_SHELL('',(#253,#254,#255,#256,#257,#258,#259,#260,#261,#262,
#263,#264,#265,#266,#267,#268,#269,#270,#271));
#273=DERIVED_UNIT_ELEMENT(#275,1.);
#274=DERIVED_UNIT_ELEMENT(#497,-3.);
#275=(
MASS_UNIT()
NAMED_UNIT(*)
SI_UNIT(.KILO.,.GRAM.)
);
#276=DERIVED_UNIT((#273,#274));
#277=MEASURE_REPRESENTATION_ITEM('density measure',
POSITIVE_RATIO_MEASURE(8080.),#276);
#278=PROPERTY_DEFINITION_REPRESENTATION(#283,#280);
#279=PROPERTY_DEFINITION_REPRESENTATION(#284,#281);
#280=REPRESENTATION('material name',(#282),#494);
#281=REPRESENTATION('density',(#277),#494);
#282=DESCRIPTIVE_REPRESENTATION_ITEM('304L Stainless Steel',
'304L Stainless Steel');
#283=PROPERTY_DEFINITION('material property','material name',#504);
#284=PROPERTY_DEFINITION('material property','density of part',#504);
#285=AXIS2_PLACEMENT_3D('placement',#418,#324,#325);
#286=AXIS2_PLACEMENT_3D('',#419,#326,#327);
#287=AXIS2_PLACEMENT_3D('',#421,#328,#329);
#288=AXIS2_PLACEMENT_3D('',#424,#331,#332);
#289=AXIS2_PLACEMENT_3D('',#425,#333,#334);
#290=AXIS2_PLACEMENT_3D('',#427,#335,#336);
#291=AXIS2_PLACEMENT_3D('',#428,#337,#338);
#292=AXIS2_PLACEMENT_3D('',#431,#340,#341);
#293=AXIS2_PLACEMENT_3D('',#432,#342,#343);
#294=AXIS2_PLACEMENT_3D('',#435,#345,#346);
#295=AXIS2_PLACEMENT_3D('',#436,#347,#348);
#296=AXIS2_PLACEMENT_3D('',#439,#350,#351);
#297=AXIS2_PLACEMENT_3D('',#440,#352,#353);
#298=AXIS2_PLACEMENT_3D('',#443,#355,#356);
#299=AXIS2_PLACEMENT_3D('',#444,#357,#358);
#300=AXIS2_PLACEMENT_3D('',#447,#360,#361);
#301=AXIS2_PLACEMENT_3D('',#448,#362,#363);
#302=AXIS2_PLACEMENT_3D('',#451,#365,#366);
#303=AXIS2_PLACEMENT_3D('',#452,#367,#368);
#304=AXIS2_PLACEMENT_3D('',#455,#370,#371);
#305=AXIS2_PLACEMENT_3D('',#456,#372,#373);
#306=AXIS2_PLACEMENT_3D('',#459,#375,#376);
#307=AXIS2_PLACEMENT_3D('',#460,#377,#378);
#308=AXIS2_PLACEMENT_3D('',#462,#379,#380);
#309=AXIS2_PLACEMENT_3D('',#463,#381,#382);
#310=AXIS2_PLACEMENT_3D('',#465,#383,#384);
#311=AXIS2_PLACEMENT_3D('',#467,#386,#387);
#312=AXIS2_PLACEMENT_3D('',#469,#388,#389);
#313=AXIS2_PLACEMENT_3D('',#471,#391,#392);
#314=AXIS2_PLACEMENT_3D('',#473,#393,#394);
#315=AXIS2_PLACEMENT_3D('',#475,#396,#397);
#316=AXIS2_PLACEMENT_3D('',#477,#398,#399);
#317=AXIS2_PLACEMENT_3D('',#479,#401,#402);
#318=AXIS2_PLACEMENT_3D('',#481,#403,#404);
#319=AXIS2_PLACEMENT_3D('',#483,#406,#407);
#320=AXIS2_PLACEMENT_3D('',#485,#408,#409);
#321=AXIS2_PLACEMENT_3D('',#487,#411,#412);
#322=AXIS2_PLACEMENT_3D('',#489,#413,#414);
#323=AXIS2_PLACEMENT_3D('',#491,#416,#417);
#324=DIRECTION('axis',(0.,0.,1.));
#325=DIRECTION('refdir',(1.,0.,0.));
#326=DIRECTION('center_axis',(0.,1.,0.));
#327=DIRECTION('ref_axis',(1.,0.,0.));
#328=DIRECTION('center_axis',(0.,-1.,0.));
#329=DIRECTION('ref_axis',(1.,0.,0.));
#330=DIRECTION('',(-0.0523359562429735,0.998629534754572,-6.40930612932734E-18));
#331=DIRECTION('center_axis',(0.,-1.,0.));
#332=DIRECTION('ref_axis',(1.,0.,0.));
#333=DIRECTION('center_axis',(0.,-1.,0.));
#334=DIRECTION('ref_axis',(0.,0.,-1.));
#335=DIRECTION('center_axis',(0.,-1.,0.));
#336=DIRECTION('ref_axis',(1.,0.,0.));
#337=DIRECTION('center_axis',(0.,1.,0.));
#338=DIRECTION('ref_axis',(1.,0.,0.));
#339=DIRECTION('',(-0.0522834955624572,0.998632282720607,-6.4028815488798E-18));
#340=DIRECTION('center_axis',(0.,-1.,0.));
#341=DIRECTION('ref_axis',(1.,0.,0.));
#342=DIRECTION('center_axis',(0.,1.,0.));
#343=DIRECTION('ref_axis',(1.,0.,0.));
#344=DIRECTION('',(-0.904601643800789,0.426257980609056,-1.10781750758407E-16));
#345=DIRECTION('center_axis',(0.,-1.,0.));
#346=DIRECTION('ref_axis',(1.,0.,0.));
#347=DIRECTION('center_axis',(0.,1.,0.));
#348=DIRECTION('ref_axis',(1.,0.,0.));
#349=DIRECTION('',(-3.26647718803549E-6,0.999999999994665,-4.00028083281551E-22));
#350=DIRECTION('center_axis',(0.,-1.,0.));
#351=DIRECTION('ref_axis',(1.,0.,0.));
#352=DIRECTION('center_axis',(0.,-1.,0.));
#353=DIRECTION('ref_axis',(1.,0.,0.));
#354=DIRECTION('',(0.706846621465328,0.707366845224635,8.65637452465634E-17));
#355=DIRECTION('center_axis',(0.,-1.,0.));
#356=DIRECTION('ref_axis',(1.,0.,0.));
#357=DIRECTION('center_axis',(0.,-1.,0.));
#358=DIRECTION('ref_axis',(1.,0.,0.));
#359=DIRECTION('',(0.,1.,0.));
#360=DIRECTION('center_axis',(0.,-1.,0.));
#361=DIRECTION('ref_axis',(1.,0.,0.));
#362=DIRECTION('center_axis',(0.,1.,0.));
#363=DIRECTION('ref_axis',(1.,0.,0.));
#364=DIRECTION('',(-0.707366845077106,0.706846621612965,-8.66274542646639E-17));
#365=DIRECTION('center_axis',(0.,-1.,0.));
#366=DIRECTION('ref_axis',(1.,0.,0.));
#367=DIRECTION('center_axis',(0.,-1.,0.));
#368=DIRECTION('ref_axis',(1.,0.,0.));
#369=DIRECTION('',(0.,1.,0.));
#370=DIRECTION('center_axis',(0.,-1.,0.));
#371=DIRECTION('ref_axis',(1.,0.,0.));
#372=DIRECTION('center_axis',(0.,-1.,0.));
#373=DIRECTION('ref_axis',(1.,0.,0.));
#374=DIRECTION('',(0.70536832922716,0.708840969557548,8.63827066607958E-17));
#375=DIRECTION('center_axis',(0.,-1.,0.));
#376=DIRECTION('ref_axis',(1.,0.,0.));
#377=DIRECTION('center_axis',(0.,1.,0.));
#378=DIRECTION('ref_axis',(0.,0.,1.));
#379=DIRECTION('center_axis',(0.,-1.,0.));
#380=DIRECTION('ref_axis',(1.,0.,0.));
#381=DIRECTION('center_axis',(0.,-1.,0.));
#382=DIRECTION('ref_axis',(1.,0.,0.));
#383=DIRECTION('center_axis',(0.,-1.,0.));
#384=DIRECTION('ref_axis',(1.,0.,0.));
#385=DIRECTION('',(0.705368329174497,0.708840969609953,8.63827066543465E-17));
#386=DIRECTION('center_axis',(0.,-1.,0.));
#387=DIRECTION('ref_axis',(1.,0.,0.));
#388=DIRECTION('center_axis',(0.,-1.,0.));
#389=DIRECTION('ref_axis',(1.,0.,0.));
#390=DIRECTION('',(0.,1.,0.));
#391=DIRECTION('center_axis',(0.,1.,0.));
#392=DIRECTION('ref_axis',(1.,0.,0.));
#393=DIRECTION('center_axis',(0.,-1.,0.));
#394=DIRECTION('ref_axis',(1.,0.,0.));
#395=DIRECTION('',(-0.707366845134317,0.706846621555712,-8.66274542716702E-17));
#396=DIRECTION('center_axis',(0.,-1.,0.));
#397=DIRECTION('ref_axis',(1.,0.,0.));
#398=DIRECTION('center_axis',(0.,-1.,0.));
#399=DIRECTION('ref_axis',(1.,0.,0.));
#400=DIRECTION('',(0.,1.,0.));
#401=DIRECTION('center_axis',(0.,-1.,0.));
#402=DIRECTION('ref_axis',(1.,0.,0.));
#403=DIRECTION('center_axis',(0.,-1.,0.));
#404=DIRECTION('ref_axis',(1.,0.,0.));
#405=DIRECTION('',(0.706846621694433,0.707366844995698,8.65637452746207E-17));
#406=DIRECTION('center_axis',(0.,1.,0.));
#407=DIRECTION('ref_axis',(1.,0.,0.));
#408=DIRECTION('center_axis',(0.,-1.,0.));
#409=DIRECTION('ref_axis',(1.,0.,0.));
#410=DIRECTION('',(-0.00200603751724502,0.999997987904716,-2.45668742446361E-19));
#411=DIRECTION('center_axis',(0.,1.,0.));
#412=DIRECTION('ref_axis',(1.,0.,0.));
#413=DIRECTION('center_axis',(0.,-1.,0.));
#414=DIRECTION('ref_axis',(1.,0.,0.));
#415=DIRECTION('',(-0.707366845007203,0.706846621682919,-8.66274542561033E-17));
#416=DIRECTION('center_axis',(0.,-1.,0.));
#417=DIRECTION('ref_axis',(0.,0.,-1.));
#418=CARTESIAN_POINT('',(0.,0.,0.));
#419=CARTESIAN_POINT('Origin',(0.,25.9998825671898,0.));
#420=CARTESIAN_POINT('',(-802.,-8.88178419700125E-15,-9.82166732916177E-14));
#421=CARTESIAN_POINT('Origin',(0.,0.,0.));
#422=CARTESIAN_POINT('',(-804.725192213934,51.9997651343795,-9.85504130838033E-14));
#423=CARTESIAN_POINT('',(-803.362596106967,25.9998825671898,-9.83835431877105E-14));
#424=CARTESIAN_POINT('Origin',(0.,51.9997651343795,0.));
#425=CARTESIAN_POINT('Origin',(800.,1.35790544576687E-29,0.));
#426=CARTESIAN_POINT('',(-800.,-4.44089209850063E-15,-9.79717439317883E-14));
#427=CARTESIAN_POINT('Origin',(0.,0.,0.));
#428=CARTESIAN_POINT('Origin',(0.,26.0522185234291,0.));
#429=CARTESIAN_POINT('',(-802.727933144423,52.1044370468582,-9.83058193911487E-14));
#430=CARTESIAN_POINT('',(-801.363966572211,26.0522185234291,-9.81387816614685E-14));
#431=CARTESIAN_POINT('Origin',(0.,52.1044370468582,0.));
#432=CARTESIAN_POINT('Origin',(0.,54.0533786309095,0.));
#433=CARTESIAN_POINT('',(-810.999992980512,56.0023202149608,-9.9318854551211E-14));
#434=CARTESIAN_POINT('',(-806.863963062467,54.0533786309095,-9.88123369711799E-14));
#435=CARTESIAN_POINT('Origin',(0.,56.0023202150437,0.));
#436=CARTESIAN_POINT('Origin',(0.,59.4528282387083,0.));
#437=CARTESIAN_POINT('',(-811.000015522485,62.9033362623728,-9.93188573118065E-14));
#438=CARTESIAN_POINT('',(-811.000004251479,59.4528282387083,-9.93188559315064E-14));
#439=CARTESIAN_POINT('Origin',(0.,62.9033362623728,0.));
#440=CARTESIAN_POINT('Origin',(0.,65.0298044455731,0.));
#441=CARTESIAN_POINT('',(-806.750206922899,67.1562726287734,-9.87984058619593E-14));
#442=CARTESIAN_POINT('',(-808.875111222692,65.0298044455731,-9.90586315868829E-14));
#443=CARTESIAN_POINT('Origin',(0.,67.1562726287735,0.));
#444=CARTESIAN_POINT('Origin',(0.,70.4878557197687,0.));
#445=CARTESIAN_POINT('',(-806.750206922549,73.8194388107639,-9.87984058619165E-14));
#446=CARTESIAN_POINT('',(-806.750206922549,70.4878557197687,-9.87984058619165E-14));
#447=CARTESIAN_POINT('Origin',(0.,73.8194388107639,0.));
#448=CARTESIAN_POINT('Origin',(0.,75.9427755123094,0.));
#449=CARTESIAN_POINT('',(-811.000005782895,78.0661122138551,-9.93188561190507E-14));
#450=CARTESIAN_POINT('',(-808.875106352547,75.9427755123094,-9.90586309904622E-14));
#451=CARTESIAN_POINT('Origin',(0.,78.066112213855,0.));
#452=CARTESIAN_POINT('Origin',(0.,81.39765455446,0.));
#453=CARTESIAN_POINT('',(-811.000005785339,84.7291968950649,-9.931885611935E-14));
#454=CARTESIAN_POINT('',(-811.000005785339,81.39765455446,-9.931885611935E-14));
#455=CARTESIAN_POINT('Origin',(0.,84.7291968950649,0.));
#456=CARTESIAN_POINT('Origin',(0.,86.8645218456558,0.));
#457=CARTESIAN_POINT('',(-806.750277971696,88.9998467962467,-9.87984145629275E-14));
#458=CARTESIAN_POINT('',(-808.875141879739,86.8645218456558,-9.90586353412884E-14));
#459=CARTESIAN_POINT('Origin',(0.,88.9998467962467,0.));
#460=CARTESIAN_POINT('Origin',(808.750277971697,88.9998467962467,0.));
#461=CARTESIAN_POINT('',(-808.750277971697,88.9998467962467,-9.90433439227571E-14));
#462=CARTESIAN_POINT('Origin',(0.,88.9998467962467,0.));
#463=CARTESIAN_POINT('Origin',(0.,86.8645218453815,0.));
#464=CARTESIAN_POINT('',(-813.000005787698,84.7291968945163,-9.95637854794684E-14));
#465=CARTESIAN_POINT('Origin',(0.,84.7291968945163,0.));
#466=CARTESIAN_POINT('',(-810.875141879698,86.8645218453815,-9.93035647011128E-14));
#467=CARTESIAN_POINT('Origin',(0.,81.3976545539101,0.));
#468=CARTESIAN_POINT('',(-813.000005785222,78.0661122133039,-9.95637854791652E-14));
#469=CARTESIAN_POINT('Origin',(0.,78.0661122133039,0.));
#470=CARTESIAN_POINT('',(-813.000005785222,81.3976545539101,-9.95637854791652E-14));
#471=CARTESIAN_POINT('Origin',(0.,75.9427755121759,0.));
#472=CARTESIAN_POINT('',(-808.750206922198,73.819438811048,-9.90433352217029E-14));
#473=CARTESIAN_POINT('Origin',(0.,73.819438811048,0.));
#474=CARTESIAN_POINT('',(-810.875106352472,75.9427755121759,-9.93035603502824E-14));
#475=CARTESIAN_POINT('Origin',(0.,70.48785571989,0.));
#476=CARTESIAN_POINT('',(-808.750206922198,67.1562726287321,-9.90433352217029E-14));
#477=CARTESIAN_POINT('Origin',(0.,67.1562726287321,0.));
#478=CARTESIAN_POINT('',(-808.750206922198,70.48785571989,-9.90433352217029E-14));
#479=CARTESIAN_POINT('Origin',(0.,65.029804666787,0.));
#480=CARTESIAN_POINT('',(-813.000015082351,62.9033367048419,-9.95637866177351E-14));
#481=CARTESIAN_POINT('Origin',(0.,62.9033367048419,0.));
#482=CARTESIAN_POINT('',(-810.875111002274,65.029804666787,-9.9303560919719E-14));
#483=CARTESIAN_POINT('Origin',(0.,59.5682141424995,0.));
#484=CARTESIAN_POINT('',(-812.986634293458,56.2330915801571,-9.95621479437064E-14));
#485=CARTESIAN_POINT('Origin',(0.,56.2330915801571,0.));
#486=CARTESIAN_POINT('',(-812.993324687905,59.5682141424995,-9.95629672807207E-14));
#487=CARTESIAN_POINT('Origin',(0.,54.1164283572436,0.));
#488=CARTESIAN_POINT('',(-808.75019221393,51.9997651343301,-9.90433334204596E-14));
#489=CARTESIAN_POINT('Origin',(0.,51.99976513433,0.));
#490=CARTESIAN_POINT('',(-810.868413253694,54.1164283572436,-9.93027406820829E-14));
#491=CARTESIAN_POINT('Origin',(806.750192213928,51.9997716672815,0.));
#492=UNCERTAINTY_MEASURE_WITH_UNIT(LENGTH_MEASURE(0.01),#496,
'DISTANCE_ACCURACY_VALUE',
'Maximum model space distance between geometric entities at asserted c
onnectivities');
#493=UNCERTAINTY_MEASURE_WITH_UNIT(LENGTH_MEASURE(0.01),#496,
'DISTANCE_ACCURACY_VALUE',
'Maximum model space distance between geometric entities at asserted c
onnectivities');
#494=(
GEOMETRIC_REPRESENTATION_CONTEXT(3)
GLOBAL_UNCERTAINTY_ASSIGNED_CONTEXT((#492))
GLOBAL_UNIT_ASSIGNED_CONTEXT((#496,#498,#499))
REPRESENTATION_CONTEXT('','3D')
);
#495=(
GEOMETRIC_REPRESENTATION_CONTEXT(3)
GLOBAL_UNCERTAINTY_ASSIGNED_CONTEXT((#493))
GLOBAL_UNIT_ASSIGNED_CONTEXT((#496,#498,#499))
REPRESENTATION_CONTEXT('','3D')
);
#496=(
LENGTH_UNIT()
NAMED_UNIT(*)
SI_UNIT(.MILLI.,.METRE.)
);
#497=(
LENGTH_UNIT()
NAMED_UNIT(*)
SI_UNIT($,.METRE.)
);
#498=(
NAMED_UNIT(*)
PLANE_ANGLE_UNIT()
SI_UNIT($,.RADIAN.)
);
#499=(
NAMED_UNIT(*)
SI_UNIT($,.STERADIAN.)
SOLID_ANGLE_UNIT()
);
#500=SHAPE_DEFINITION_REPRESENTATION(#501,#502);
#501=PRODUCT_DEFINITION_SHAPE('',$,#504);
#502=SHAPE_REPRESENTATION('',(#285),#494);
#503=PRODUCT_DEFINITION_CONTEXT('part definition',#508,'design');
#504=PRODUCT_DEFINITION('BFM Spigot 1600mm','BFM Spigot 1600mm v1',#505,
#503);
#505=PRODUCT_DEFINITION_FORMATION('',$,#510);
#506=PRODUCT_RELATED_PRODUCT_CATEGORY('BFM Spigot 1600mm v1',
'BFM Spigot 1600mm v1',(#510));
#507=APPLICATION_PROTOCOL_DEFINITION('international standard',
'automotive_design',2009,#508);
#508=APPLICATION_CONTEXT(
'Core Data for Automotive Mechanical Design Process');
#509=PRODUCT_CONTEXT('part definition',#508,'mechanical');
#510=PRODUCT('BFM Spigot 1600mm','BFM Spigot 1600mm v1',$,(#509));
#511=PRESENTATION_STYLE_ASSIGNMENT((#512));
#512=SURFACE_STYLE_USAGE(.BOTH.,#513);
#513=SURFACE_SIDE_STYLE('',(#514));
#514=SURFACE_STYLE_FILL_AREA(#515);
#515=FILL_AREA_STYLE('Steel - Satin',(#516));
#516=FILL_AREA_STYLE_COLOUR('Steel - Satin',#517);
#517=COLOUR_RGB('Steel - Satin',0.627450980392157,0.627450980392157,0.627450980392157);
ENDSEC;
END-ISO-10303-21;
