ISO-10303-21;
HEADER;
/* Generated by software containing ST-Developer
 * from STEP Tools, Inc. (www.steptools.com) 
 */

FILE_DESCRIPTION(
/* description */ (''),
/* implementation_level */ '2;1');

FILE_NAME(
/* name */ 
'M:/Public/Photos, Drawings, Video/CAD Drawings/BFM Drawings/Standard 
BFM Connectors & Spigots/.STP Files/Spigots/BFM Spigot 1650mm v2.step',

/* time_stamp */ '2021-08-06T08:28:15+12:00',
/* author */ (''),
/* organization */ (''),
/* preprocessor_version */ 'ST-DEVELOPER v18.1',
/* originating_system */ 'Autodesk Translation Framework v10.9.0.1377',

/* authorisation */ '');

FILE_SCHEMA (('AUTOMOTIVE_DESIGN { 1 0 10303 214 3 1 1 }'));
ENDSEC;

DATA;
#10=MECHANICAL_DESIGN_GEOMETRIC_PRESENTATION_REPRESENTATION('',(#13),#495);
#11=SHAPE_REPRESENTATION_RELATIONSHIP('SRR','None',#502,#12);
#12=ADVANCED_BREP_SHAPE_REPRESENTATION('',(#14),#494);
#13=STYLED_ITEM('',(#511),#14);
#14=MANIFOLD_SOLID_BREP('Body19',#272);
#15=FACE_BOUND('',#57,.T.);
#16=FACE_BOUND('',#60,.T.);
#17=FACE_BOUND('',#70,.T.);
#18=PLANE('',#295);
#19=PLANE('',#299);
#20=PLANE('',#317);
#21=CONICAL_SURFACE('',#289,835.875106722568,0.785030309945887);
#22=CONICAL_SURFACE('',#291,837.993320408171,0.00200603885858049);
#23=CONICAL_SURFACE('',#293,835.868408973974,0.785766016848963);
#24=CONICAL_SURFACE('',#297,828.362593967107,0.0523598775598637);
#25=CONICAL_SURFACE('',#301,826.363964432351,0.0523073448750971);
#26=CONICAL_SURFACE('',#303,831.863958782731,1.13044425012062);
#27=CONICAL_SURFACE('',#305,835.999999971756,3.26647566420301E-6);
#28=CONICAL_SURFACE('',#307,833.875106942995,0.785030309626672);
#29=CONICAL_SURFACE('',#311,833.875102073069,0.7857660167041);
#30=CONICAL_SURFACE('',#315,833.875178630771,0.782923417740433);
#31=CONICAL_SURFACE('',#319,835.875178630726,0.782923417601684);
#32=CONICAL_SURFACE('',#323,835.875102073129,0.785766016848969);
#33=FACE_OUTER_BOUND('',#52,.T.);
#34=FACE_OUTER_BOUND('',#53,.T.);
#35=FACE_OUTER_BOUND('',#54,.T.);
#36=FACE_OUTER_BOUND('',#55,.T.);
#37=FACE_OUTER_BOUND('',#56,.T.);
#38=FACE_OUTER_BOUND('',#58,.T.);
#39=FACE_OUTER_BOUND('',#59,.T.);
#40=FACE_OUTER_BOUND('',#61,.T.);
#41=FACE_OUTER_BOUND('',#62,.T.);
#42=FACE_OUTER_BOUND('',#63,.T.);
#43=FACE_OUTER_BOUND('',#64,.T.);
#44=FACE_OUTER_BOUND('',#65,.T.);
#45=FACE_OUTER_BOUND('',#66,.T.);
#46=FACE_OUTER_BOUND('',#67,.T.);
#47=FACE_OUTER_BOUND('',#68,.T.);
#48=FACE_OUTER_BOUND('',#69,.T.);
#49=FACE_OUTER_BOUND('',#71,.T.);
#50=FACE_OUTER_BOUND('',#72,.T.);
#51=FACE_OUTER_BOUND('',#73,.T.);
#52=EDGE_LOOP('',(#179,#180,#181,#182));
#53=EDGE_LOOP('',(#183,#184,#185,#186));
#54=EDGE_LOOP('',(#187,#188,#189,#190));
#55=EDGE_LOOP('',(#191,#192,#193,#194));
#56=EDGE_LOOP('',(#195));
#57=EDGE_LOOP('',(#196));
#58=EDGE_LOOP('',(#197,#198,#199,#200));
#59=EDGE_LOOP('',(#201));
#60=EDGE_LOOP('',(#202));
#61=EDGE_LOOP('',(#203,#204,#205,#206));
#62=EDGE_LOOP('',(#207,#208,#209,#210));
#63=EDGE_LOOP('',(#211,#212,#213,#214));
#64=EDGE_LOOP('',(#215,#216,#217,#218));
#65=EDGE_LOOP('',(#219,#220,#221,#222));
#66=EDGE_LOOP('',(#223,#224,#225,#226));
#67=EDGE_LOOP('',(#227,#228,#229,#230));
#68=EDGE_LOOP('',(#231,#232,#233,#234));
#69=EDGE_LOOP('',(#235));
#70=EDGE_LOOP('',(#236));
#71=EDGE_LOOP('',(#237,#238,#239,#240));
#72=EDGE_LOOP('',(#241,#242,#243,#244));
#73=EDGE_LOOP('',(#245,#246,#247,#248));
#74=LINE('',#423,#90);
#75=LINE('',#428,#91);
#76=LINE('',#432,#92);
#77=LINE('',#436,#93);
#78=LINE('',#443,#94);
#79=LINE('',#449,#95);
#80=LINE('',#453,#96);
#81=LINE('',#457,#97);
#82=LINE('',#461,#98);
#83=LINE('',#465,#99);
#84=LINE('',#469,#100);
#85=LINE('',#473,#101);
#86=LINE('',#477,#102);
#87=LINE('',#485,#103);
#88=LINE('',#489,#104);
#89=LINE('',#491,#105);
#90=VECTOR('',#330,833.750202642881);
#91=VECTOR('',#337,835.875106722568);
#92=VECTOR('',#342,837.993320408171);
#93=VECTOR('',#347,835.868408973974);
#94=VECTOR('',#356,828.362593967107);
#95=VECTOR('',#363,826.363964432351);
#96=VECTOR('',#368,831.863958782731);
#97=VECTOR('',#373,835.999999971756);
#98=VECTOR('',#378,833.875106942995);
#99=VECTOR('',#383,831.750202643233);
#100=VECTOR('',#388,833.875102073069);
#101=VECTOR('',#393,836.000001504823);
#102=VECTOR('',#398,833.875178630771);
#103=VECTOR('',#409,835.875178630726);
#104=VECTOR('',#414,838.000001504839);
#105=VECTOR('',#417,835.875102073129);
#106=CIRCLE('',#287,833.750202642532);
#107=CIRCLE('',#288,833.750202643231);
#108=CIRCLE('',#290,838.000010802604);
#109=CIRCLE('',#292,837.986630013738);
#110=CIRCLE('',#294,833.75018793421);
#111=CIRCLE('',#296,829.725187934214);
#112=CIRCLE('',#298,827.);
#113=CIRCLE('',#300,825.);
#114=CIRCLE('',#302,827.727928864703);
#115=CIRCLE('',#304,835.999988700756);
#116=CIRCLE('',#306,836.000011242757);
#117=CIRCLE('',#308,831.750202643233);
#118=CIRCLE('',#310,831.750202643233);
#119=CIRCLE('',#312,836.000001502906);
#120=CIRCLE('',#314,836.000001506741);
#121=CIRCLE('',#316,831.7503557548);
#122=CIRCLE('',#318,833.750355754802);
#123=CIRCLE('',#320,838.000001506651);
#124=CIRCLE('',#322,838.000001503027);
#125=VERTEX_POINT('',#420);
#126=VERTEX_POINT('',#422);
#127=VERTEX_POINT('',#426);
#128=VERTEX_POINT('',#430);
#129=VERTEX_POINT('',#434);
#130=VERTEX_POINT('',#438);
#131=VERTEX_POINT('',#441);
#132=VERTEX_POINT('',#445);
#133=VERTEX_POINT('',#448);
#134=VERTEX_POINT('',#452);
#135=VERTEX_POINT('',#456);
#136=VERTEX_POINT('',#460);
#137=VERTEX_POINT('',#464);
#138=VERTEX_POINT('',#468);
#139=VERTEX_POINT('',#472);
#140=VERTEX_POINT('',#476);
#141=VERTEX_POINT('',#480);
#142=VERTEX_POINT('',#483);
#143=VERTEX_POINT('',#487);
#144=EDGE_CURVE('',#125,#125,#106,.T.);
#145=EDGE_CURVE('',#125,#126,#74,.T.);
#146=EDGE_CURVE('',#126,#126,#107,.T.);
#147=EDGE_CURVE('',#127,#127,#108,.T.);
#148=EDGE_CURVE('',#127,#125,#75,.T.);
#149=EDGE_CURVE('',#128,#128,#109,.T.);
#150=EDGE_CURVE('',#128,#127,#76,.T.);
#151=EDGE_CURVE('',#129,#129,#110,.T.);
#152=EDGE_CURVE('',#129,#128,#77,.T.);
#153=EDGE_CURVE('',#130,#130,#111,.T.);
#154=EDGE_CURVE('',#131,#131,#112,.T.);
#155=EDGE_CURVE('',#131,#130,#78,.T.);
#156=EDGE_CURVE('',#132,#132,#113,.T.);
#157=EDGE_CURVE('',#132,#133,#79,.T.);
#158=EDGE_CURVE('',#133,#133,#114,.T.);
#159=EDGE_CURVE('',#133,#134,#80,.T.);
#160=EDGE_CURVE('',#134,#134,#115,.T.);
#161=EDGE_CURVE('',#134,#135,#81,.T.);
#162=EDGE_CURVE('',#135,#135,#116,.T.);
#163=EDGE_CURVE('',#135,#136,#82,.T.);
#164=EDGE_CURVE('',#136,#136,#117,.T.);
#165=EDGE_CURVE('',#136,#137,#83,.T.);
#166=EDGE_CURVE('',#137,#137,#118,.T.);
#167=EDGE_CURVE('',#137,#138,#84,.T.);
#168=EDGE_CURVE('',#138,#138,#119,.T.);
#169=EDGE_CURVE('',#138,#139,#85,.T.);
#170=EDGE_CURVE('',#139,#139,#120,.T.);
#171=EDGE_CURVE('',#139,#140,#86,.T.);
#172=EDGE_CURVE('',#140,#140,#121,.T.);
#173=EDGE_CURVE('',#141,#141,#122,.T.);
#174=EDGE_CURVE('',#142,#142,#123,.T.);
#175=EDGE_CURVE('',#142,#141,#87,.T.);
#176=EDGE_CURVE('',#143,#143,#124,.T.);
#177=EDGE_CURVE('',#143,#142,#88,.T.);
#178=EDGE_CURVE('',#126,#143,#89,.T.);
#179=ORIENTED_EDGE('',*,*,#144,.F.);
#180=ORIENTED_EDGE('',*,*,#145,.T.);
#181=ORIENTED_EDGE('',*,*,#146,.T.);
#182=ORIENTED_EDGE('',*,*,#145,.F.);
#183=ORIENTED_EDGE('',*,*,#147,.F.);
#184=ORIENTED_EDGE('',*,*,#148,.T.);
#185=ORIENTED_EDGE('',*,*,#144,.T.);
#186=ORIENTED_EDGE('',*,*,#148,.F.);
#187=ORIENTED_EDGE('',*,*,#149,.F.);
#188=ORIENTED_EDGE('',*,*,#150,.T.);
#189=ORIENTED_EDGE('',*,*,#147,.T.);
#190=ORIENTED_EDGE('',*,*,#150,.F.);
#191=ORIENTED_EDGE('',*,*,#151,.F.);
#192=ORIENTED_EDGE('',*,*,#152,.T.);
#193=ORIENTED_EDGE('',*,*,#149,.T.);
#194=ORIENTED_EDGE('',*,*,#152,.F.);
#195=ORIENTED_EDGE('',*,*,#151,.T.);
#196=ORIENTED_EDGE('',*,*,#153,.F.);
#197=ORIENTED_EDGE('',*,*,#154,.F.);
#198=ORIENTED_EDGE('',*,*,#155,.T.);
#199=ORIENTED_EDGE('',*,*,#153,.T.);
#200=ORIENTED_EDGE('',*,*,#155,.F.);
#201=ORIENTED_EDGE('',*,*,#154,.T.);
#202=ORIENTED_EDGE('',*,*,#156,.F.);
#203=ORIENTED_EDGE('',*,*,#156,.T.);
#204=ORIENTED_EDGE('',*,*,#157,.T.);
#205=ORIENTED_EDGE('',*,*,#158,.F.);
#206=ORIENTED_EDGE('',*,*,#157,.F.);
#207=ORIENTED_EDGE('',*,*,#158,.T.);
#208=ORIENTED_EDGE('',*,*,#159,.T.);
#209=ORIENTED_EDGE('',*,*,#160,.F.);
#210=ORIENTED_EDGE('',*,*,#159,.F.);
#211=ORIENTED_EDGE('',*,*,#160,.T.);
#212=ORIENTED_EDGE('',*,*,#161,.T.);
#213=ORIENTED_EDGE('',*,*,#162,.F.);
#214=ORIENTED_EDGE('',*,*,#161,.F.);
#215=ORIENTED_EDGE('',*,*,#162,.T.);
#216=ORIENTED_EDGE('',*,*,#163,.T.);
#217=ORIENTED_EDGE('',*,*,#164,.F.);
#218=ORIENTED_EDGE('',*,*,#163,.F.);
#219=ORIENTED_EDGE('',*,*,#164,.T.);
#220=ORIENTED_EDGE('',*,*,#165,.T.);
#221=ORIENTED_EDGE('',*,*,#166,.F.);
#222=ORIENTED_EDGE('',*,*,#165,.F.);
#223=ORIENTED_EDGE('',*,*,#166,.T.);
#224=ORIENTED_EDGE('',*,*,#167,.T.);
#225=ORIENTED_EDGE('',*,*,#168,.F.);
#226=ORIENTED_EDGE('',*,*,#167,.F.);
#227=ORIENTED_EDGE('',*,*,#168,.T.);
#228=ORIENTED_EDGE('',*,*,#169,.T.);
#229=ORIENTED_EDGE('',*,*,#170,.F.);
#230=ORIENTED_EDGE('',*,*,#169,.F.);
#231=ORIENTED_EDGE('',*,*,#170,.T.);
#232=ORIENTED_EDGE('',*,*,#171,.T.);
#233=ORIENTED_EDGE('',*,*,#172,.F.);
#234=ORIENTED_EDGE('',*,*,#171,.F.);
#235=ORIENTED_EDGE('',*,*,#173,.F.);
#236=ORIENTED_EDGE('',*,*,#172,.T.);
#237=ORIENTED_EDGE('',*,*,#174,.F.);
#238=ORIENTED_EDGE('',*,*,#175,.T.);
#239=ORIENTED_EDGE('',*,*,#173,.T.);
#240=ORIENTED_EDGE('',*,*,#175,.F.);
#241=ORIENTED_EDGE('',*,*,#176,.F.);
#242=ORIENTED_EDGE('',*,*,#177,.T.);
#243=ORIENTED_EDGE('',*,*,#174,.T.);
#244=ORIENTED_EDGE('',*,*,#177,.F.);
#245=ORIENTED_EDGE('',*,*,#146,.F.);
#246=ORIENTED_EDGE('',*,*,#178,.T.);
#247=ORIENTED_EDGE('',*,*,#176,.T.);
#248=ORIENTED_EDGE('',*,*,#178,.F.);
#249=CYLINDRICAL_SURFACE('',#286,833.750202642881);
#250=CYLINDRICAL_SURFACE('',#309,831.750202643233);
#251=CYLINDRICAL_SURFACE('',#313,836.000001504823);
#252=CYLINDRICAL_SURFACE('',#321,838.000001504839);
#253=ADVANCED_FACE('',(#33),#249,.T.);
#254=ADVANCED_FACE('',(#34),#21,.T.);
#255=ADVANCED_FACE('',(#35),#22,.T.);
#256=ADVANCED_FACE('',(#36),#23,.T.);
#257=ADVANCED_FACE('',(#37,#15),#18,.T.);
#258=ADVANCED_FACE('',(#38),#24,.T.);
#259=ADVANCED_FACE('',(#39,#16),#19,.T.);
#260=ADVANCED_FACE('',(#40),#25,.F.);
#261=ADVANCED_FACE('',(#41),#26,.F.);
#262=ADVANCED_FACE('',(#42),#27,.F.);
#263=ADVANCED_FACE('',(#43),#28,.F.);
#264=ADVANCED_FACE('',(#44),#250,.F.);
#265=ADVANCED_FACE('',(#45),#29,.F.);
#266=ADVANCED_FACE('',(#46),#251,.F.);
#267=ADVANCED_FACE('',(#47),#30,.F.);
#268=ADVANCED_FACE('',(#48,#17),#20,.T.);
#269=ADVANCED_FACE('',(#49),#31,.T.);
#270=ADVANCED_FACE('',(#50),#252,.T.);
#271=ADVANCED_FACE('',(#51),#32,.T.);
#272=CLOSED_SHELL('',(#253,#254,#255,#256,#257,#258,#259,#260,#261,#262,
#263,#264,#265,#266,#267,#268,#269,#270,#271));
#273=DERIVED_UNIT_ELEMENT(#275,1.);
#274=DERIVED_UNIT_ELEMENT(#497,-3.);
#275=(
MASS_UNIT()
NAMED_UNIT(*)
SI_UNIT(.KILO.,.GRAM.)
);
#276=DERIVED_UNIT((#273,#274));
#277=MEASURE_REPRESENTATION_ITEM('density measure',
POSITIVE_RATIO_MEASURE(8080.),#276);
#278=PROPERTY_DEFINITION_REPRESENTATION(#283,#280);
#279=PROPERTY_DEFINITION_REPRESENTATION(#284,#281);
#280=REPRESENTATION('material name',(#282),#494);
#281=REPRESENTATION('density',(#277),#494);
#282=DESCRIPTIVE_REPRESENTATION_ITEM('304L Stainless Steel',
'304L Stainless Steel');
#283=PROPERTY_DEFINITION('material property','material name',#504);
#284=PROPERTY_DEFINITION('material property','density of part',#504);
#285=AXIS2_PLACEMENT_3D('placement',#418,#324,#325);
#286=AXIS2_PLACEMENT_3D('',#419,#326,#327);
#287=AXIS2_PLACEMENT_3D('',#421,#328,#329);
#288=AXIS2_PLACEMENT_3D('',#424,#331,#332);
#289=AXIS2_PLACEMENT_3D('',#425,#333,#334);
#290=AXIS2_PLACEMENT_3D('',#427,#335,#336);
#291=AXIS2_PLACEMENT_3D('',#429,#338,#339);
#292=AXIS2_PLACEMENT_3D('',#431,#340,#341);
#293=AXIS2_PLACEMENT_3D('',#433,#343,#344);
#294=AXIS2_PLACEMENT_3D('',#435,#345,#346);
#295=AXIS2_PLACEMENT_3D('',#437,#348,#349);
#296=AXIS2_PLACEMENT_3D('',#439,#350,#351);
#297=AXIS2_PLACEMENT_3D('',#440,#352,#353);
#298=AXIS2_PLACEMENT_3D('',#442,#354,#355);
#299=AXIS2_PLACEMENT_3D('',#444,#357,#358);
#300=AXIS2_PLACEMENT_3D('',#446,#359,#360);
#301=AXIS2_PLACEMENT_3D('',#447,#361,#362);
#302=AXIS2_PLACEMENT_3D('',#450,#364,#365);
#303=AXIS2_PLACEMENT_3D('',#451,#366,#367);
#304=AXIS2_PLACEMENT_3D('',#454,#369,#370);
#305=AXIS2_PLACEMENT_3D('',#455,#371,#372);
#306=AXIS2_PLACEMENT_3D('',#458,#374,#375);
#307=AXIS2_PLACEMENT_3D('',#459,#376,#377);
#308=AXIS2_PLACEMENT_3D('',#462,#379,#380);
#309=AXIS2_PLACEMENT_3D('',#463,#381,#382);
#310=AXIS2_PLACEMENT_3D('',#466,#384,#385);
#311=AXIS2_PLACEMENT_3D('',#467,#386,#387);
#312=AXIS2_PLACEMENT_3D('',#470,#389,#390);
#313=AXIS2_PLACEMENT_3D('',#471,#391,#392);
#314=AXIS2_PLACEMENT_3D('',#474,#394,#395);
#315=AXIS2_PLACEMENT_3D('',#475,#396,#397);
#316=AXIS2_PLACEMENT_3D('',#478,#399,#400);
#317=AXIS2_PLACEMENT_3D('',#479,#401,#402);
#318=AXIS2_PLACEMENT_3D('',#481,#403,#404);
#319=AXIS2_PLACEMENT_3D('',#482,#405,#406);
#320=AXIS2_PLACEMENT_3D('',#484,#407,#408);
#321=AXIS2_PLACEMENT_3D('',#486,#410,#411);
#322=AXIS2_PLACEMENT_3D('',#488,#412,#413);
#323=AXIS2_PLACEMENT_3D('',#490,#415,#416);
#324=DIRECTION('axis',(0.,0.,1.));
#325=DIRECTION('refdir',(1.,0.,0.));
#326=DIRECTION('center_axis',(0.,-1.,0.));
#327=DIRECTION('ref_axis',(1.,0.,0.));
#328=DIRECTION('center_axis',(0.,-1.,0.));
#329=DIRECTION('ref_axis',(1.,0.,0.));
#330=DIRECTION('',(0.,1.,0.));
#331=DIRECTION('center_axis',(0.,-1.,0.));
#332=DIRECTION('ref_axis',(1.,0.,0.));
#333=DIRECTION('center_axis',(0.,-1.,0.));
#334=DIRECTION('ref_axis',(1.,0.,0.));
#335=DIRECTION('center_axis',(0.,-1.,0.));
#336=DIRECTION('ref_axis',(1.,0.,0.));
#337=DIRECTION('',(0.706846621680845,0.707366845009276,8.65637452729566E-17));
#338=DIRECTION('center_axis',(0.,1.,0.));
#339=DIRECTION('ref_axis',(1.,0.,0.));
#340=DIRECTION('center_axis',(0.,-1.,0.));
#341=DIRECTION('ref_axis',(1.,0.,0.));
#342=DIRECTION('',(-0.00200603751313321,0.999997987904724,-2.4566874194281E-19));
#343=DIRECTION('center_axis',(0.,1.,0.));
#344=DIRECTION('ref_axis',(1.,0.,0.));
#345=DIRECTION('center_axis',(0.,-1.,0.));
#346=DIRECTION('ref_axis',(1.,0.,0.));
#347=DIRECTION('',(-0.707366845009243,0.706846621680877,-8.66274542563532E-17));
#348=DIRECTION('center_axis',(0.,-1.,0.));
#349=DIRECTION('ref_axis',(0.,0.,-1.));
#350=DIRECTION('center_axis',(0.,-1.,0.));
#351=DIRECTION('ref_axis',(1.,0.,0.));
#352=DIRECTION('center_axis',(0.,1.,0.));
#353=DIRECTION('ref_axis',(1.,0.,0.));
#354=DIRECTION('center_axis',(0.,-1.,0.));
#355=DIRECTION('ref_axis',(1.,0.,0.));
#356=DIRECTION('',(-0.0523359562429776,0.998629534754572,-6.40930612932784E-18));
#357=DIRECTION('center_axis',(0.,-1.,0.));
#358=DIRECTION('ref_axis',(0.,0.,-1.));
#359=DIRECTION('center_axis',(0.,-1.,0.));
#360=DIRECTION('ref_axis',(1.,0.,0.));
#361=DIRECTION('center_axis',(0.,1.,0.));
#362=DIRECTION('ref_axis',(1.,0.,0.));
#363=DIRECTION('',(-0.0522834954802385,0.998632282724912,-6.40288153881092E-18));
#364=DIRECTION('center_axis',(0.,-1.,0.));
#365=DIRECTION('ref_axis',(1.,0.,0.));
#366=DIRECTION('center_axis',(0.,1.,0.));
#367=DIRECTION('ref_axis',(1.,0.,0.));
#368=DIRECTION('',(-0.904601643797164,0.42625798061675,-1.10781750757963E-16));
#369=DIRECTION('center_axis',(0.,-1.,0.));
#370=DIRECTION('ref_axis',(1.,0.,0.));
#371=DIRECTION('center_axis',(0.,1.,0.));
#372=DIRECTION('ref_axis',(1.,0.,0.));
#373=DIRECTION('',(-3.2664756641972E-6,0.999999999994665,-4.00027896665183E-22));
#374=DIRECTION('center_axis',(0.,-1.,0.));
#375=DIRECTION('ref_axis',(1.,0.,0.));
#376=DIRECTION('center_axis',(0.,-1.,0.));
#377=DIRECTION('ref_axis',(1.,0.,0.));
#378=DIRECTION('',(0.706846621455043,0.707366845234912,8.65637452453039E-17));
#379=DIRECTION('center_axis',(0.,-1.,0.));
#380=DIRECTION('ref_axis',(1.,0.,0.));
#381=DIRECTION('center_axis',(0.,-1.,0.));
#382=DIRECTION('ref_axis',(1.,0.,0.));
#383=DIRECTION('',(0.,1.,0.));
#384=DIRECTION('center_axis',(0.,-1.,0.));
#385=DIRECTION('ref_axis',(1.,0.,0.));
#386=DIRECTION('center_axis',(0.,1.,0.));
#387=DIRECTION('ref_axis',(1.,0.,0.));
#388=DIRECTION('',(-0.707366844906847,0.706846621783349,-8.66274542438133E-17));
#389=DIRECTION('center_axis',(0.,-1.,0.));
#390=DIRECTION('ref_axis',(1.,0.,0.));
#391=DIRECTION('center_axis',(0.,-1.,0.));
#392=DIRECTION('ref_axis',(1.,0.,0.));
#393=DIRECTION('',(0.,1.,0.));
#394=DIRECTION('center_axis',(0.,-1.,0.));
#395=DIRECTION('ref_axis',(1.,0.,0.));
#396=DIRECTION('center_axis',(0.,-1.,0.));
#397=DIRECTION('ref_axis',(1.,0.,0.));
#398=DIRECTION('',(0.705354708247657,0.708854523546871,8.63810385719009E-17));
#399=DIRECTION('center_axis',(0.,-1.,0.));
#400=DIRECTION('ref_axis',(1.,0.,0.));
#401=DIRECTION('center_axis',(0.,1.,0.));
#402=DIRECTION('ref_axis',(0.,0.,1.));
#403=DIRECTION('center_axis',(0.,-1.,0.));
#404=DIRECTION('ref_axis',(1.,0.,0.));
#405=DIRECTION('center_axis',(0.,-1.,0.));
#406=DIRECTION('ref_axis',(1.,0.,0.));
#407=DIRECTION('center_axis',(0.,-1.,0.));
#408=DIRECTION('ref_axis',(1.,0.,0.));
#409=DIRECTION('',(0.705354708149304,0.708854523644739,8.63810385598561E-17));
#410=DIRECTION('center_axis',(0.,-1.,0.));
#411=DIRECTION('ref_axis',(1.,0.,0.));
#412=DIRECTION('center_axis',(0.,-1.,0.));
#413=DIRECTION('ref_axis',(1.,0.,0.));
#414=DIRECTION('',(0.,1.,0.));
#415=DIRECTION('center_axis',(0.,1.,0.));
#416=DIRECTION('ref_axis',(1.,0.,0.));
#417=DIRECTION('',(-0.707366845009247,0.706846621680873,-8.66274542563536E-17));
#418=CARTESIAN_POINT('',(0.,0.,0.));
#419=CARTESIAN_POINT('Origin',(0.,70.4877740580522,0.));
#420=CARTESIAN_POINT('',(-833.750202642881,67.1561909669108,-1.02104951695506E-13));
#421=CARTESIAN_POINT('Origin',(0.,67.1561909669108,0.));
#422=CARTESIAN_POINT('',(-833.750202642881,73.8193571491936,-1.02104951695506E-13));
#423=CARTESIAN_POINT('',(-833.750202642881,70.4877740580522,-1.02104951695506E-13));
#424=CARTESIAN_POINT('Origin',(0.,73.8193571491936,0.));
#425=CARTESIAN_POINT('Origin',(0.,65.0297230049247,0.));
#426=CARTESIAN_POINT('',(-838.000010802604,62.9032550429386,-1.02625403091486E-13));
#427=CARTESIAN_POINT('Origin',(0.,62.9032550429386,0.));
#428=CARTESIAN_POINT('',(-835.875106722568,65.0297230049247,-1.02365177393474E-13));
#429=CARTESIAN_POINT('Origin',(0.,59.5681324805962,0.));
#430=CARTESIAN_POINT('',(-837.986630013738,56.2330099182538,-1.0262376441746E-13));
#431=CARTESIAN_POINT('Origin',(0.,56.2330099182538,0.));
#432=CARTESIAN_POINT('',(-837.993320408171,59.5681324805962,-1.02624583754473E-13));
#433=CARTESIAN_POINT('Origin',(0.,54.1163466953524,0.));
#434=CARTESIAN_POINT('',(-833.75018793421,51.999683472451,-1.02104949894213E-13));
#435=CARTESIAN_POINT('Origin',(0.,51.999683472451,0.));
#436=CARTESIAN_POINT('',(-835.868408973974,54.1163466953524,-1.02364357155837E-13));
#437=CARTESIAN_POINT('Origin',(829.725187934214,51.999683472451,0.));
#438=CARTESIAN_POINT('',(-829.725187934214,51.999683472451,-1.01612029557557E-13));
#439=CARTESIAN_POINT('Origin',(0.,51.999683472451,0.));
#440=CARTESIAN_POINT('Origin',(0.,25.9998417362255,0.));
#441=CARTESIAN_POINT('',(-827.,-8.88178419700125E-15,-1.01278290289486E-13));
#442=CARTESIAN_POINT('Origin',(0.,0.,0.));
#443=CARTESIAN_POINT('',(-828.362593967107,25.9998417362255,-1.01445159923522E-13));
#444=CARTESIAN_POINT('Origin',(825.,1.18534212274977E-29,0.));
#445=CARTESIAN_POINT('',(-825.,0.,-1.01033360929657E-13));
#446=CARTESIAN_POINT('Origin',(0.,0.,0.));
#447=CARTESIAN_POINT('Origin',(0.,26.0521776924685,0.));
#448=CARTESIAN_POINT('',(-827.727928864703,52.104355384937,-1.01367435864903E-13));
#449=CARTESIAN_POINT('',(-826.363964432351,26.0521776924685,-1.0120039839728E-13));
#450=CARTESIAN_POINT('Origin',(0.,52.104355384937,0.));
#451=CARTESIAN_POINT('Origin',(0.,54.0532969690234,0.));
#452=CARTESIAN_POINT('',(-835.999988700759,56.0022385531099,-1.02380471024961E-13));
#453=CARTESIAN_POINT('',(-831.863958782731,54.0532969690234,-1.01873953444932E-13));
#454=CARTESIAN_POINT('Origin',(0.,56.0022385531178,0.));
#455=CARTESIAN_POINT('Origin',(0.,59.4527465767823,0.));
#456=CARTESIAN_POINT('',(-836.000011242757,62.9032546004468,-1.02380473785559E-13));
#457=CARTESIAN_POINT('',(-835.999999971756,59.4527465767823,-1.0238047240526E-13));
#458=CARTESIAN_POINT('Origin',(0.,62.9032546004468,0.));
#459=CARTESIAN_POINT('Origin',(0.,65.029722783678,0.));
#460=CARTESIAN_POINT('',(-831.750202643233,67.1561909669092,-1.0186002233572E-13));
#461=CARTESIAN_POINT('',(-833.875106942995,65.029722783678,-1.0212024806064E-13));
#462=CARTESIAN_POINT('Origin',(0.,67.1561909669092,0.));
#463=CARTESIAN_POINT('Origin',(0.,70.487774058046,0.));
#464=CARTESIAN_POINT('',(-831.750202643233,73.8193571491828,-1.0186002233572E-13));
#465=CARTESIAN_POINT('',(-831.750202643233,70.487774058046,-1.0186002233572E-13));
#466=CARTESIAN_POINT('Origin',(0.,73.8193571491828,0.));
#467=CARTESIAN_POINT('Origin',(0.,75.9426938512402,0.));
#468=CARTESIAN_POINT('',(-836.000001502906,78.0660305532976,-1.02380472592772E-13));
#469=CARTESIAN_POINT('',(-833.875102073069,75.9426938512402,-1.02120247464246E-13));
#470=CARTESIAN_POINT('Origin',(0.,78.0660305532976,0.));
#471=CARTESIAN_POINT('Origin',(0.,81.3975728939026,0.));
#472=CARTESIAN_POINT('',(-836.000001504823,84.7291152345076,-1.02380472593006E-13));
#473=CARTESIAN_POINT('',(-836.000001504823,81.3975728939026,-1.02380472593006E-13));
#474=CARTESIAN_POINT('Origin',(0.,84.7291152345076,0.));
#475=CARTESIAN_POINT('Origin',(0.,86.8644810153771,0.));
#476=CARTESIAN_POINT('',(-831.7503557548,88.9998467962466,-1.01860041086479E-13));
#477=CARTESIAN_POINT('',(-833.875178630771,86.8644810153771,-1.0212025683986E-13));
#478=CARTESIAN_POINT('Origin',(0.,88.9998467962467,0.));
#479=CARTESIAN_POINT('Origin',(833.750355754802,88.9998467962467,0.));
#480=CARTESIAN_POINT('',(-833.750355754802,88.9998467962467,-1.02104970446308E-13));
#481=CARTESIAN_POINT('Origin',(0.,88.9998467962467,0.));
#482=CARTESIAN_POINT('Origin',(0.,86.8644810148302,0.));
#483=CARTESIAN_POINT('',(-838.000001506651,84.7291152334137,-1.0262540195306E-13));
#484=CARTESIAN_POINT('Origin',(0.,84.7291152334138,0.));
#485=CARTESIAN_POINT('',(-835.875178630726,86.8644810148302,-1.02365186199684E-13));
#486=CARTESIAN_POINT('Origin',(0.,81.3975728928075,0.));
#487=CARTESIAN_POINT('',(-838.000001504839,78.0660305522013,-1.02625401952838E-13));
#488=CARTESIAN_POINT('Origin',(0.,78.0660305522013,0.));
#489=CARTESIAN_POINT('',(-838.000001504839,81.3975728928075,-1.02625401952838E-13));
#490=CARTESIAN_POINT('Origin',(0.,75.9426938506975,0.));
#491=CARTESIAN_POINT('',(-835.875102073129,75.9426938506975,-1.02365176824082E-13));
#492=UNCERTAINTY_MEASURE_WITH_UNIT(LENGTH_MEASURE(0.01),#496,
'DISTANCE_ACCURACY_VALUE',
'Maximum model space distance between geometric entities at asserted c
onnectivities');
#493=UNCERTAINTY_MEASURE_WITH_UNIT(LENGTH_MEASURE(0.01),#496,
'DISTANCE_ACCURACY_VALUE',
'Maximum model space distance between geometric entities at asserted c
onnectivities');
#494=(
GEOMETRIC_REPRESENTATION_CONTEXT(3)
GLOBAL_UNCERTAINTY_ASSIGNED_CONTEXT((#492))
GLOBAL_UNIT_ASSIGNED_CONTEXT((#496,#498,#499))
REPRESENTATION_CONTEXT('','3D')
);
#495=(
GEOMETRIC_REPRESENTATION_CONTEXT(3)
GLOBAL_UNCERTAINTY_ASSIGNED_CONTEXT((#493))
GLOBAL_UNIT_ASSIGNED_CONTEXT((#496,#498,#499))
REPRESENTATION_CONTEXT('','3D')
);
#496=(
LENGTH_UNIT()
NAMED_UNIT(*)
SI_UNIT(.MILLI.,.METRE.)
);
#497=(
LENGTH_UNIT()
NAMED_UNIT(*)
SI_UNIT($,.METRE.)
);
#498=(
NAMED_UNIT(*)
PLANE_ANGLE_UNIT()
SI_UNIT($,.RADIAN.)
);
#499=(
NAMED_UNIT(*)
SI_UNIT($,.STERADIAN.)
SOLID_ANGLE_UNIT()
);
#500=SHAPE_DEFINITION_REPRESENTATION(#501,#502);
#501=PRODUCT_DEFINITION_SHAPE('',$,#504);
#502=SHAPE_REPRESENTATION('',(#285),#494);
#503=PRODUCT_DEFINITION_CONTEXT('part definition',#508,'design');
#504=PRODUCT_DEFINITION('BFM Spigot 1650mm','BFM Spigot 1650mm v1',#505,
#503);
#505=PRODUCT_DEFINITION_FORMATION('',$,#510);
#506=PRODUCT_RELATED_PRODUCT_CATEGORY('BFM Spigot 1650mm v1',
'BFM Spigot 1650mm v1',(#510));
#507=APPLICATION_PROTOCOL_DEFINITION('international standard',
'automotive_design',2009,#508);
#508=APPLICATION_CONTEXT(
'Core Data for Automotive Mechanical Design Process');
#509=PRODUCT_CONTEXT('part definition',#508,'mechanical');
#510=PRODUCT('BFM Spigot 1650mm','BFM Spigot 1650mm v1',$,(#509));
#511=PRESENTATION_STYLE_ASSIGNMENT((#512));
#512=SURFACE_STYLE_USAGE(.BOTH.,#513);
#513=SURFACE_SIDE_STYLE('',(#514));
#514=SURFACE_STYLE_FILL_AREA(#515);
#515=FILL_AREA_STYLE('Steel - Satin',(#516));
#516=FILL_AREA_STYLE_COLOUR('Steel - Satin',#517);
#517=COLOUR_RGB('Steel - Satin',0.627450980392157,0.627450980392157,0.627450980392157);
ENDSEC;
END-ISO-10303-21;
