ISO-10303-21;
HEADER;
/* Generated by software containing ST-Developer
 * from STEP Tools, Inc. (www.steptools.com) 
 */

FILE_DESCRIPTION(
/* description */ (''),
/* implementation_level */ '2;1');

FILE_NAME(
/* name */ 
'M:/Public/Photos, Drawings, Video/CAD Drawings/BFM Spigot 700mm v1.st
ep',
/* time_stamp */ '2020-12-02T07:31:15+13:00',
/* author */ (''),
/* organization */ (''),
/* preprocessor_version */ 'ST-DEVELOPER v18.1',
/* originating_system */ 'Autodesk Translation Framework v9.3.0.1241',
/* authorisation */ '');

FILE_SCHEMA (('AUTOMOTIVE_DESIGN { 1 0 10303 214 3 1 1 }'));
ENDSEC;

DATA;
#10=MECHANICAL_DESIGN_GEOMETRIC_PRESENTATION_REPRESENTATION('',(#13),#495);
#11=SHAPE_REPRESENTATION_RELATIONSHIP('SRR','None',#502,#12);
#12=ADVANCED_BREP_SHAPE_REPRESENTATION('',(#14),#494);
#13=STYLED_ITEM('',(#511),#14);
#14=MANIFOLD_SOLID_BREP('Body7',#272);
#15=FACE_BOUND('',#58,.T.);
#16=FACE_BOUND('',#61,.T.);
#17=FACE_BOUND('',#71,.T.);
#18=PLANE('',#299);
#19=PLANE('',#303);
#20=PLANE('',#321);
#21=CONICAL_SURFACE('',#289,360.875098246825,0.785767111030082);
#22=CONICAL_SURFACE('',#293,360.875098246825,0.785029215764838);
#23=CONICAL_SURFACE('',#295,362.993320791745,0.00200268481934889);
#24=CONICAL_SURFACE('',#297,360.868419038569,0.785767111030058);
#25=CONICAL_SURFACE('',#301,353.362598246825,0.0523598775598355);
#26=CONICAL_SURFACE('',#305,351.36396871207,0.052307345039779);
#27=CONICAL_SURFACE('',#307,356.863968712071,1.13044495292682);
#28=CONICAL_SURFACE('',#311,358.875098246825,0.785029215764777);
#29=CONICAL_SURFACE('',#315,358.875098246825,0.785767111030066);
#30=CONICAL_SURFACE('',#319,358.875098246825,0.782960366933207);
#31=CONICAL_SURFACE('',#323,360.866287789885,0.785029215764838);
#32=FACE_OUTER_BOUND('',#51,.T.);
#33=FACE_OUTER_BOUND('',#52,.T.);
#34=FACE_OUTER_BOUND('',#53,.T.);
#35=FACE_OUTER_BOUND('',#54,.T.);
#36=FACE_OUTER_BOUND('',#55,.T.);
#37=FACE_OUTER_BOUND('',#56,.T.);
#38=FACE_OUTER_BOUND('',#57,.T.);
#39=FACE_OUTER_BOUND('',#59,.T.);
#40=FACE_OUTER_BOUND('',#60,.T.);
#41=FACE_OUTER_BOUND('',#62,.T.);
#42=FACE_OUTER_BOUND('',#63,.T.);
#43=FACE_OUTER_BOUND('',#64,.T.);
#44=FACE_OUTER_BOUND('',#65,.T.);
#45=FACE_OUTER_BOUND('',#66,.T.);
#46=FACE_OUTER_BOUND('',#67,.T.);
#47=FACE_OUTER_BOUND('',#68,.T.);
#48=FACE_OUTER_BOUND('',#69,.T.);
#49=FACE_OUTER_BOUND('',#70,.T.);
#50=FACE_OUTER_BOUND('',#72,.T.);
#51=EDGE_LOOP('',(#178,#179,#180,#181));
#52=EDGE_LOOP('',(#182,#183,#184,#185));
#53=EDGE_LOOP('',(#186,#187,#188,#189));
#54=EDGE_LOOP('',(#190,#191,#192,#193));
#55=EDGE_LOOP('',(#194,#195,#196,#197));
#56=EDGE_LOOP('',(#198,#199,#200,#201));
#57=EDGE_LOOP('',(#202));
#58=EDGE_LOOP('',(#203));
#59=EDGE_LOOP('',(#204,#205,#206,#207));
#60=EDGE_LOOP('',(#208));
#61=EDGE_LOOP('',(#209));
#62=EDGE_LOOP('',(#210,#211,#212,#213));
#63=EDGE_LOOP('',(#214,#215,#216,#217));
#64=EDGE_LOOP('',(#218,#219,#220,#221));
#65=EDGE_LOOP('',(#222,#223,#224,#225));
#66=EDGE_LOOP('',(#226,#227,#228,#229));
#67=EDGE_LOOP('',(#230,#231,#232,#233));
#68=EDGE_LOOP('',(#234,#235,#236,#237));
#69=EDGE_LOOP('',(#238,#239,#240,#241));
#70=EDGE_LOOP('',(#242));
#71=EDGE_LOOP('',(#243));
#72=EDGE_LOOP('',(#244,#245,#246,#247));
#73=LINE('',#423,#89);
#74=LINE('',#428,#90);
#75=LINE('',#432,#91);
#76=LINE('',#436,#92);
#77=LINE('',#440,#93);
#78=LINE('',#444,#94);
#79=LINE('',#451,#95);
#80=LINE('',#457,#96);
#81=LINE('',#461,#97);
#82=LINE('',#465,#98);
#83=LINE('',#469,#99);
#84=LINE('',#473,#100);
#85=LINE('',#477,#101);
#86=LINE('',#481,#102);
#87=LINE('',#485,#103);
#88=LINE('',#491,#104);
#89=VECTOR('',#330,363.000000000001);
#90=VECTOR('',#337,360.875098246825);
#91=VECTOR('',#342,358.75019649365);
#92=VECTOR('',#347,360.875098246825);
#93=VECTOR('',#352,362.993320791745);
#94=VECTOR('',#357,360.868419038569);
#95=VECTOR('',#366,353.362598246825);
#96=VECTOR('',#373,351.36396871207);
#97=VECTOR('',#378,356.863968712071);
#98=VECTOR('',#383,361.000000000001);
#99=VECTOR('',#388,358.875098246825);
#100=VECTOR('',#393,356.75019649365);
#101=VECTOR('',#398,358.875098246825);
#102=VECTOR('',#403,361.);
#103=VECTOR('',#408,358.875098246825);
#104=VECTOR('',#417,360.866287789885);
#105=CIRCLE('',#287,363.000000000001);
#106=CIRCLE('',#288,363.000000000001);
#107=CIRCLE('',#290,358.75019649365);
#108=CIRCLE('',#292,358.75019649365);
#109=CIRCLE('',#294,363.);
#110=CIRCLE('',#296,362.986641583489);
#111=CIRCLE('',#298,358.75019649365);
#112=CIRCLE('',#300,354.72519649365);
#113=CIRCLE('',#302,352.);
#114=CIRCLE('',#304,350.);
#115=CIRCLE('',#306,352.727937424141);
#116=CIRCLE('',#308,361.000000000001);
#117=CIRCLE('',#310,361.);
#118=CIRCLE('',#312,356.75019649365);
#119=CIRCLE('',#314,356.75019649365);
#120=CIRCLE('',#316,361.);
#121=CIRCLE('',#318,361.);
#122=CIRCLE('',#320,356.75019649365);
#123=CIRCLE('',#322,358.732575579769);
#124=VERTEX_POINT('',#420);
#125=VERTEX_POINT('',#422);
#126=VERTEX_POINT('',#426);
#127=VERTEX_POINT('',#430);
#128=VERTEX_POINT('',#434);
#129=VERTEX_POINT('',#438);
#130=VERTEX_POINT('',#442);
#131=VERTEX_POINT('',#446);
#132=VERTEX_POINT('',#449);
#133=VERTEX_POINT('',#453);
#134=VERTEX_POINT('',#456);
#135=VERTEX_POINT('',#460);
#136=VERTEX_POINT('',#464);
#137=VERTEX_POINT('',#468);
#138=VERTEX_POINT('',#472);
#139=VERTEX_POINT('',#476);
#140=VERTEX_POINT('',#480);
#141=VERTEX_POINT('',#484);
#142=VERTEX_POINT('',#488);
#143=EDGE_CURVE('',#124,#124,#105,.T.);
#144=EDGE_CURVE('',#124,#125,#73,.T.);
#145=EDGE_CURVE('',#125,#125,#106,.T.);
#146=EDGE_CURVE('',#126,#126,#107,.T.);
#147=EDGE_CURVE('',#126,#124,#74,.T.);
#148=EDGE_CURVE('',#127,#127,#108,.T.);
#149=EDGE_CURVE('',#127,#126,#75,.T.);
#150=EDGE_CURVE('',#128,#128,#109,.T.);
#151=EDGE_CURVE('',#128,#127,#76,.T.);
#152=EDGE_CURVE('',#129,#129,#110,.T.);
#153=EDGE_CURVE('',#129,#128,#77,.T.);
#154=EDGE_CURVE('',#130,#130,#111,.T.);
#155=EDGE_CURVE('',#130,#129,#78,.T.);
#156=EDGE_CURVE('',#131,#131,#112,.T.);
#157=EDGE_CURVE('',#132,#132,#113,.T.);
#158=EDGE_CURVE('',#132,#131,#79,.T.);
#159=EDGE_CURVE('',#133,#133,#114,.T.);
#160=EDGE_CURVE('',#133,#134,#80,.T.);
#161=EDGE_CURVE('',#134,#134,#115,.T.);
#162=EDGE_CURVE('',#134,#135,#81,.T.);
#163=EDGE_CURVE('',#135,#135,#116,.T.);
#164=EDGE_CURVE('',#135,#136,#82,.T.);
#165=EDGE_CURVE('',#136,#136,#117,.T.);
#166=EDGE_CURVE('',#136,#137,#83,.T.);
#167=EDGE_CURVE('',#137,#137,#118,.T.);
#168=EDGE_CURVE('',#137,#138,#84,.T.);
#169=EDGE_CURVE('',#138,#138,#119,.T.);
#170=EDGE_CURVE('',#138,#139,#85,.T.);
#171=EDGE_CURVE('',#139,#139,#120,.T.);
#172=EDGE_CURVE('',#139,#140,#86,.T.);
#173=EDGE_CURVE('',#140,#140,#121,.T.);
#174=EDGE_CURVE('',#140,#141,#87,.T.);
#175=EDGE_CURVE('',#141,#141,#122,.T.);
#176=EDGE_CURVE('',#142,#142,#123,.T.);
#177=EDGE_CURVE('',#125,#142,#88,.T.);
#178=ORIENTED_EDGE('',*,*,#143,.F.);
#179=ORIENTED_EDGE('',*,*,#144,.T.);
#180=ORIENTED_EDGE('',*,*,#145,.T.);
#181=ORIENTED_EDGE('',*,*,#144,.F.);
#182=ORIENTED_EDGE('',*,*,#146,.F.);
#183=ORIENTED_EDGE('',*,*,#147,.T.);
#184=ORIENTED_EDGE('',*,*,#143,.T.);
#185=ORIENTED_EDGE('',*,*,#147,.F.);
#186=ORIENTED_EDGE('',*,*,#148,.F.);
#187=ORIENTED_EDGE('',*,*,#149,.T.);
#188=ORIENTED_EDGE('',*,*,#146,.T.);
#189=ORIENTED_EDGE('',*,*,#149,.F.);
#190=ORIENTED_EDGE('',*,*,#150,.F.);
#191=ORIENTED_EDGE('',*,*,#151,.T.);
#192=ORIENTED_EDGE('',*,*,#148,.T.);
#193=ORIENTED_EDGE('',*,*,#151,.F.);
#194=ORIENTED_EDGE('',*,*,#152,.F.);
#195=ORIENTED_EDGE('',*,*,#153,.T.);
#196=ORIENTED_EDGE('',*,*,#150,.T.);
#197=ORIENTED_EDGE('',*,*,#153,.F.);
#198=ORIENTED_EDGE('',*,*,#154,.F.);
#199=ORIENTED_EDGE('',*,*,#155,.T.);
#200=ORIENTED_EDGE('',*,*,#152,.T.);
#201=ORIENTED_EDGE('',*,*,#155,.F.);
#202=ORIENTED_EDGE('',*,*,#154,.T.);
#203=ORIENTED_EDGE('',*,*,#156,.F.);
#204=ORIENTED_EDGE('',*,*,#157,.F.);
#205=ORIENTED_EDGE('',*,*,#158,.T.);
#206=ORIENTED_EDGE('',*,*,#156,.T.);
#207=ORIENTED_EDGE('',*,*,#158,.F.);
#208=ORIENTED_EDGE('',*,*,#157,.T.);
#209=ORIENTED_EDGE('',*,*,#159,.F.);
#210=ORIENTED_EDGE('',*,*,#159,.T.);
#211=ORIENTED_EDGE('',*,*,#160,.T.);
#212=ORIENTED_EDGE('',*,*,#161,.F.);
#213=ORIENTED_EDGE('',*,*,#160,.F.);
#214=ORIENTED_EDGE('',*,*,#161,.T.);
#215=ORIENTED_EDGE('',*,*,#162,.T.);
#216=ORIENTED_EDGE('',*,*,#163,.F.);
#217=ORIENTED_EDGE('',*,*,#162,.F.);
#218=ORIENTED_EDGE('',*,*,#163,.T.);
#219=ORIENTED_EDGE('',*,*,#164,.T.);
#220=ORIENTED_EDGE('',*,*,#165,.F.);
#221=ORIENTED_EDGE('',*,*,#164,.F.);
#222=ORIENTED_EDGE('',*,*,#165,.T.);
#223=ORIENTED_EDGE('',*,*,#166,.T.);
#224=ORIENTED_EDGE('',*,*,#167,.F.);
#225=ORIENTED_EDGE('',*,*,#166,.F.);
#226=ORIENTED_EDGE('',*,*,#167,.T.);
#227=ORIENTED_EDGE('',*,*,#168,.T.);
#228=ORIENTED_EDGE('',*,*,#169,.F.);
#229=ORIENTED_EDGE('',*,*,#168,.F.);
#230=ORIENTED_EDGE('',*,*,#169,.T.);
#231=ORIENTED_EDGE('',*,*,#170,.T.);
#232=ORIENTED_EDGE('',*,*,#171,.F.);
#233=ORIENTED_EDGE('',*,*,#170,.F.);
#234=ORIENTED_EDGE('',*,*,#171,.T.);
#235=ORIENTED_EDGE('',*,*,#172,.T.);
#236=ORIENTED_EDGE('',*,*,#173,.F.);
#237=ORIENTED_EDGE('',*,*,#172,.F.);
#238=ORIENTED_EDGE('',*,*,#173,.T.);
#239=ORIENTED_EDGE('',*,*,#174,.T.);
#240=ORIENTED_EDGE('',*,*,#175,.F.);
#241=ORIENTED_EDGE('',*,*,#174,.F.);
#242=ORIENTED_EDGE('',*,*,#176,.F.);
#243=ORIENTED_EDGE('',*,*,#175,.T.);
#244=ORIENTED_EDGE('',*,*,#145,.F.);
#245=ORIENTED_EDGE('',*,*,#177,.T.);
#246=ORIENTED_EDGE('',*,*,#176,.T.);
#247=ORIENTED_EDGE('',*,*,#177,.F.);
#248=CYLINDRICAL_SURFACE('',#286,363.000000000001);
#249=CYLINDRICAL_SURFACE('',#291,358.75019649365);
#250=CYLINDRICAL_SURFACE('',#309,361.000000000001);
#251=CYLINDRICAL_SURFACE('',#313,356.75019649365);
#252=CYLINDRICAL_SURFACE('',#317,361.);
#253=ADVANCED_FACE('',(#32),#248,.T.);
#254=ADVANCED_FACE('',(#33),#21,.T.);
#255=ADVANCED_FACE('',(#34),#249,.T.);
#256=ADVANCED_FACE('',(#35),#22,.T.);
#257=ADVANCED_FACE('',(#36),#23,.T.);
#258=ADVANCED_FACE('',(#37),#24,.T.);
#259=ADVANCED_FACE('',(#38,#15),#18,.T.);
#260=ADVANCED_FACE('',(#39),#25,.T.);
#261=ADVANCED_FACE('',(#40,#16),#19,.T.);
#262=ADVANCED_FACE('',(#41),#26,.F.);
#263=ADVANCED_FACE('',(#42),#27,.F.);
#264=ADVANCED_FACE('',(#43),#250,.F.);
#265=ADVANCED_FACE('',(#44),#28,.F.);
#266=ADVANCED_FACE('',(#45),#251,.F.);
#267=ADVANCED_FACE('',(#46),#29,.F.);
#268=ADVANCED_FACE('',(#47),#252,.F.);
#269=ADVANCED_FACE('',(#48),#30,.F.);
#270=ADVANCED_FACE('',(#49,#17),#20,.T.);
#271=ADVANCED_FACE('',(#50),#31,.T.);
#272=CLOSED_SHELL('',(#253,#254,#255,#256,#257,#258,#259,#260,#261,#262,
#263,#264,#265,#266,#267,#268,#269,#270,#271));
#273=DERIVED_UNIT_ELEMENT(#275,1.);
#274=DERIVED_UNIT_ELEMENT(#497,3.);
#275=(
MASS_UNIT()
NAMED_UNIT(*)
SI_UNIT(.KILO.,.GRAM.)
);
#276=DERIVED_UNIT((#273,#274));
#277=MEASURE_REPRESENTATION_ITEM('density measure',
POSITIVE_RATIO_MEASURE(8080.),#276);
#278=PROPERTY_DEFINITION_REPRESENTATION(#283,#280);
#279=PROPERTY_DEFINITION_REPRESENTATION(#284,#281);
#280=REPRESENTATION('material name',(#282),#494);
#281=REPRESENTATION('density',(#277),#494);
#282=DESCRIPTIVE_REPRESENTATION_ITEM('304L Stainless Steel',
'304L Stainless Steel');
#283=PROPERTY_DEFINITION('material property','material name',#504);
#284=PROPERTY_DEFINITION('material property','density of part',#504);
#285=AXIS2_PLACEMENT_3D('placement',#418,#324,#325);
#286=AXIS2_PLACEMENT_3D('',#419,#326,#327);
#287=AXIS2_PLACEMENT_3D('',#421,#328,#329);
#288=AXIS2_PLACEMENT_3D('',#424,#331,#332);
#289=AXIS2_PLACEMENT_3D('',#425,#333,#334);
#290=AXIS2_PLACEMENT_3D('',#427,#335,#336);
#291=AXIS2_PLACEMENT_3D('',#429,#338,#339);
#292=AXIS2_PLACEMENT_3D('',#431,#340,#341);
#293=AXIS2_PLACEMENT_3D('',#433,#343,#344);
#294=AXIS2_PLACEMENT_3D('',#435,#345,#346);
#295=AXIS2_PLACEMENT_3D('',#437,#348,#349);
#296=AXIS2_PLACEMENT_3D('',#439,#350,#351);
#297=AXIS2_PLACEMENT_3D('',#441,#353,#354);
#298=AXIS2_PLACEMENT_3D('',#443,#355,#356);
#299=AXIS2_PLACEMENT_3D('',#445,#358,#359);
#300=AXIS2_PLACEMENT_3D('',#447,#360,#361);
#301=AXIS2_PLACEMENT_3D('',#448,#362,#363);
#302=AXIS2_PLACEMENT_3D('',#450,#364,#365);
#303=AXIS2_PLACEMENT_3D('',#452,#367,#368);
#304=AXIS2_PLACEMENT_3D('',#454,#369,#370);
#305=AXIS2_PLACEMENT_3D('',#455,#371,#372);
#306=AXIS2_PLACEMENT_3D('',#458,#374,#375);
#307=AXIS2_PLACEMENT_3D('',#459,#376,#377);
#308=AXIS2_PLACEMENT_3D('',#462,#379,#380);
#309=AXIS2_PLACEMENT_3D('',#463,#381,#382);
#310=AXIS2_PLACEMENT_3D('',#466,#384,#385);
#311=AXIS2_PLACEMENT_3D('',#467,#386,#387);
#312=AXIS2_PLACEMENT_3D('',#470,#389,#390);
#313=AXIS2_PLACEMENT_3D('',#471,#391,#392);
#314=AXIS2_PLACEMENT_3D('',#474,#394,#395);
#315=AXIS2_PLACEMENT_3D('',#475,#396,#397);
#316=AXIS2_PLACEMENT_3D('',#478,#399,#400);
#317=AXIS2_PLACEMENT_3D('',#479,#401,#402);
#318=AXIS2_PLACEMENT_3D('',#482,#404,#405);
#319=AXIS2_PLACEMENT_3D('',#483,#406,#407);
#320=AXIS2_PLACEMENT_3D('',#486,#409,#410);
#321=AXIS2_PLACEMENT_3D('',#487,#411,#412);
#322=AXIS2_PLACEMENT_3D('',#489,#413,#414);
#323=AXIS2_PLACEMENT_3D('',#490,#415,#416);
#324=DIRECTION('axis',(0.,0.,1.));
#325=DIRECTION('refdir',(1.,0.,0.));
#326=DIRECTION('center_axis',(0.,-1.,0.));
#327=DIRECTION('ref_axis',(1.,0.,0.));
#328=DIRECTION('center_axis',(0.,-1.,0.));
#329=DIRECTION('ref_axis',(1.,0.,0.));
#330=DIRECTION('',(0.,1.,0.));
#331=DIRECTION('center_axis',(0.,-1.,0.));
#332=DIRECTION('ref_axis',(1.,0.,0.));
#333=DIRECTION('center_axis',(0.,1.,0.));
#334=DIRECTION('ref_axis',(1.,0.,0.));
#335=DIRECTION('center_axis',(0.,-1.,0.));
#336=DIRECTION('ref_axis',(1.,0.,0.));
#337=DIRECTION('',(-0.707367618427047,0.706845847693008,-8.6627548972717E-17));
#338=DIRECTION('center_axis',(0.,-1.,0.));
#339=DIRECTION('ref_axis',(1.,0.,0.));
#340=DIRECTION('center_axis',(0.,-1.,0.));
#341=DIRECTION('ref_axis',(1.,0.,0.));
#342=DIRECTION('',(0.,1.,0.));
#343=DIRECTION('center_axis',(0.,-1.,0.));
#344=DIRECTION('ref_axis',(1.,0.,0.));
#345=DIRECTION('center_axis',(0.,-1.,0.));
#346=DIRECTION('ref_axis',(1.,0.,0.));
#347=DIRECTION('',(0.706845847693025,0.70736761842703,8.65636504867861E-17));
#348=DIRECTION('center_axis',(0.,1.,0.));
#349=DIRECTION('ref_axis',(1.,0.,0.));
#350=DIRECTION('center_axis',(0.,-1.,0.));
#351=DIRECTION('ref_axis',(1.,0.,0.));
#352=DIRECTION('',(-0.00200268348063897,0.999997994627427,-2.4525799142698E-19));
#353=DIRECTION('center_axis',(0.,1.,0.));
#354=DIRECTION('ref_axis',(1.,0.,0.));
#355=DIRECTION('center_axis',(0.,-1.,0.));
#356=DIRECTION('ref_axis',(1.,0.,0.));
#357=DIRECTION('',(-0.70736761842703,0.706845847693025,-8.66275489727149E-17));
#358=DIRECTION('center_axis',(0.,-1.,0.));
#359=DIRECTION('ref_axis',(0.,0.,-1.));
#360=DIRECTION('center_axis',(0.,-1.,0.));
#361=DIRECTION('ref_axis',(1.,0.,0.));
#362=DIRECTION('center_axis',(0.,1.,0.));
#363=DIRECTION('ref_axis',(1.,0.,0.));
#364=DIRECTION('center_axis',(0.,-1.,0.));
#365=DIRECTION('ref_axis',(1.,0.,0.));
#366=DIRECTION('',(-0.0523359562429495,0.998629534754574,-6.4093061293244E-18));
#367=DIRECTION('center_axis',(0.,-1.,0.));
#368=DIRECTION('ref_axis',(0.,0.,-1.));
#369=DIRECTION('center_axis',(0.,-1.,0.));
#370=DIRECTION('ref_axis',(1.,0.,0.));
#371=DIRECTION('center_axis',(0.,1.,0.));
#372=DIRECTION('ref_axis',(1.,0.,0.));
#373=DIRECTION('',(-0.0522834956446952,0.998632282716301,-6.40288155895106E-18));
#374=DIRECTION('center_axis',(0.,-1.,0.));
#375=DIRECTION('ref_axis',(1.,0.,0.));
#376=DIRECTION('center_axis',(0.,1.,0.));
#377=DIRECTION('ref_axis',(1.,0.,0.));
#378=DIRECTION('',(-0.904601943373691,0.426257344857003,-1.10781787445507E-16));
#379=DIRECTION('center_axis',(0.,-1.,0.));
#380=DIRECTION('ref_axis',(1.,0.,0.));
#381=DIRECTION('center_axis',(0.,-1.,0.));
#382=DIRECTION('ref_axis',(1.,0.,0.));
#383=DIRECTION('',(0.,1.,0.));
#384=DIRECTION('center_axis',(0.,-1.,0.));
#385=DIRECTION('ref_axis',(1.,0.,0.));
#386=DIRECTION('center_axis',(0.,-1.,0.));
#387=DIRECTION('ref_axis',(1.,0.,0.));
#388=DIRECTION('',(0.706845847692982,0.707367618427074,8.65636504867808E-17));
#389=DIRECTION('center_axis',(0.,-1.,0.));
#390=DIRECTION('ref_axis',(1.,0.,0.));
#391=DIRECTION('center_axis',(0.,-1.,0.));
#392=DIRECTION('ref_axis',(1.,0.,0.));
#393=DIRECTION('',(0.,1.,0.));
#394=DIRECTION('center_axis',(0.,-1.,0.));
#395=DIRECTION('ref_axis',(1.,0.,0.));
#396=DIRECTION('center_axis',(0.,1.,0.));
#397=DIRECTION('ref_axis',(1.,0.,0.));
#398=DIRECTION('',(-0.707367618427035,0.70684584769302,-8.66275489727155E-17));
#399=DIRECTION('center_axis',(0.,-1.,0.));
#400=DIRECTION('ref_axis',(1.,0.,0.));
#401=DIRECTION('center_axis',(0.,-1.,0.));
#402=DIRECTION('ref_axis',(1.,0.,0.));
#403=DIRECTION('',(0.,1.,0.));
#404=DIRECTION('center_axis',(0.,-1.,0.));
#405=DIRECTION('ref_axis',(1.,0.,0.));
#406=DIRECTION('center_axis',(0.,-1.,0.));
#407=DIRECTION('ref_axis',(1.,0.,0.));
#408=DIRECTION('',(0.7053808993686,0.708828460775909,8.63842460591438E-17));
#409=DIRECTION('center_axis',(0.,-1.,0.));
#410=DIRECTION('ref_axis',(1.,0.,0.));
#411=DIRECTION('center_axis',(0.,1.,0.));
#412=DIRECTION('ref_axis',(0.,0.,1.));
#413=DIRECTION('center_axis',(0.,-1.,0.));
#414=DIRECTION('ref_axis',(1.,0.,0.));
#415=DIRECTION('center_axis',(0.,-1.,0.));
#416=DIRECTION('ref_axis',(1.,0.,0.));
#417=DIRECTION('',(0.706845847693025,0.707367618427031,8.6563650486786E-17));
#418=CARTESIAN_POINT('',(0.,0.,0.));
#419=CARTESIAN_POINT('Origin',(0.,81.3977299607825,0.));
#420=CARTESIAN_POINT('',(-363.000000000001,78.0661876201803,-4.4454678809049E-14));
#421=CARTESIAN_POINT('Origin',(0.,78.0661876201803,0.));
#422=CARTESIAN_POINT('',(-363.000000000001,84.7292723013847,-4.4454678809049E-14));
#423=CARTESIAN_POINT('',(-363.000000000001,81.3977299607825,-4.4454678809049E-14));
#424=CARTESIAN_POINT('Origin',(0.,84.7292723013847,0.));
#425=CARTESIAN_POINT('Origin',(0.,75.9428532437391,0.));
#426=CARTESIAN_POINT('',(-358.75019649365,73.8195188672979,-4.39342279829433E-14));
#427=CARTESIAN_POINT('Origin',(0.,73.8195188672979,0.));
#428=CARTESIAN_POINT('',(-360.875098246825,75.9428532437391,-4.41944533959961E-14));
#429=CARTESIAN_POINT('Origin',(0.,70.4879357759349,0.));
#430=CARTESIAN_POINT('',(-358.75019649365,67.156352684572,-4.39342279829433E-14));
#431=CARTESIAN_POINT('Origin',(0.,67.156352684572,0.));
#432=CARTESIAN_POINT('',(-358.75019649365,70.4879357759349,-4.39342279829433E-14));
#433=CARTESIAN_POINT('Origin',(0.,65.0298823976761,0.));
#434=CARTESIAN_POINT('',(-363.,62.9034121107802,-4.4454678809049E-14));
#435=CARTESIAN_POINT('Origin',(0.,62.9034121107802,0.));
#436=CARTESIAN_POINT('',(-360.875098246825,65.0298823976761,-4.41944533959961E-14));
#437=CARTESIAN_POINT('Origin',(0.,59.5682895484376,0.));
#438=CARTESIAN_POINT('',(-362.986641583489,56.233166986095,-4.44530428748467E-14));
#439=CARTESIAN_POINT('Origin',(0.,56.233166986095,0.));
#440=CARTESIAN_POINT('',(-362.993320791745,59.5682895484376,-4.44538608419478E-14));
#441=CARTESIAN_POINT('Origin',(0.,54.1165068911708,0.));
#442=CARTESIAN_POINT('',(-358.75019649365,51.9998467962466,-4.39342279829432E-14));
#443=CARTESIAN_POINT('Origin',(0.,51.9998467962466,0.));
#444=CARTESIAN_POINT('',(-360.868419038569,54.1165068911708,-4.4193635428895E-14));
#445=CARTESIAN_POINT('Origin',(354.72519649365,51.9998467962466,0.));
#446=CARTESIAN_POINT('',(-354.72519649365,51.9998467962466,-4.34413076462864E-14));
#447=CARTESIAN_POINT('Origin',(0.,51.9998467962466,0.));
#448=CARTESIAN_POINT('Origin',(0.,25.9999233981233,0.));
#449=CARTESIAN_POINT('',(-352.,0.,-4.31075673299868E-14));
#450=CARTESIAN_POINT('Origin',(0.,0.,0.));
#451=CARTESIAN_POINT('',(-353.362598246825,25.9999233981233,-4.32744374881366E-14));
#452=CARTESIAN_POINT('Origin',(350.,-6.66840392585006E-30,0.));
#453=CARTESIAN_POINT('',(-350.,0.,-4.28626379701574E-14));
#454=CARTESIAN_POINT('Origin',(0.,0.,0.));
#455=CARTESIAN_POINT('Origin',(0.,26.0522593543663,0.));
#456=CARTESIAN_POINT('',(-352.727937424141,52.1045187087326,-4.31967139536322E-14));
#457=CARTESIAN_POINT('',(-351.36396871207,26.0522593543663,-4.30296759618948E-14));
#458=CARTESIAN_POINT('Origin',(0.,52.1045187087326,0.));
#459=CARTESIAN_POINT('Origin',(0.,54.0534573860732,0.));
#460=CARTESIAN_POINT('',(-361.000000000001,56.0023960634138,-4.42097494492195E-14));
#461=CARTESIAN_POINT('',(-356.863968712071,54.0534573860732,-4.37032317014259E-14));
#462=CARTESIAN_POINT('Origin',(0.,56.0023960634138,0.));
#463=CARTESIAN_POINT('Origin',(0.,59.4529040870968,0.));
#464=CARTESIAN_POINT('',(-361.000000000001,62.9034121107797,-4.42097494492195E-14));
#465=CARTESIAN_POINT('',(-361.000000000001,59.4529040870968,-4.42097494492195E-14));
#466=CARTESIAN_POINT('Origin',(0.,62.9034121107797,0.));
#467=CARTESIAN_POINT('Origin',(0.,65.0298823976758,0.));
#468=CARTESIAN_POINT('',(-356.75019649365,67.156352684572,-4.36892986231138E-14));
#469=CARTESIAN_POINT('',(-358.875098246825,65.0298823976758,-4.39495240361666E-14));
#470=CARTESIAN_POINT('Origin',(0.,67.156352684572,0.));
#471=CARTESIAN_POINT('Origin',(0.,70.4879357759349,0.));
#472=CARTESIAN_POINT('',(-356.75019649365,73.8195188672979,-4.36892986231138E-14));
#473=CARTESIAN_POINT('',(-356.75019649365,70.4879357759349,-4.36892986231138E-14));
#474=CARTESIAN_POINT('Origin',(0.,73.8195188672979,0.));
#475=CARTESIAN_POINT('Origin',(0.,75.9428532437391,0.));
#476=CARTESIAN_POINT('',(-361.,78.0661876201803,-4.42097494492195E-14));
#477=CARTESIAN_POINT('',(-358.875098246825,75.9428532437391,-4.39495240361666E-14));
#478=CARTESIAN_POINT('Origin',(0.,78.0661876201803,0.));
#479=CARTESIAN_POINT('Origin',(0.,81.3977299607825,0.));
#480=CARTESIAN_POINT('',(-361.,84.7292723013847,-4.42097494492195E-14));
#481=CARTESIAN_POINT('',(-361.,81.3977299607825,-4.42097494492195E-14));
#482=CARTESIAN_POINT('Origin',(0.,84.7292723013847,0.));
#483=CARTESIAN_POINT('Origin',(0.,86.8645595488157,0.));
#484=CARTESIAN_POINT('',(-356.75019649365,88.9998467962467,-4.36892986231138E-14));
#485=CARTESIAN_POINT('',(-358.875098246825,86.8645595488157,-4.39495240361666E-14));
#486=CARTESIAN_POINT('Origin',(0.,88.9998467962467,0.));
#487=CARTESIAN_POINT('Origin',(358.732575579769,88.9998467962467,0.));
#488=CARTESIAN_POINT('',(-358.732575579769,88.9998467962465,-4.3932070043365E-14));
#489=CARTESIAN_POINT('Origin',(0.,88.9998467962467,0.));
#490=CARTESIAN_POINT('Origin',(0.,86.8645595488156,0.));
#491=CARTESIAN_POINT('',(-360.866287789885,86.8645595488156,-4.4193374426207E-14));
#492=UNCERTAINTY_MEASURE_WITH_UNIT(LENGTH_MEASURE(0.01),#496,
'DISTANCE_ACCURACY_VALUE',
'Maximum model space distance between geometric entities at asserted c
onnectivities');
#493=UNCERTAINTY_MEASURE_WITH_UNIT(LENGTH_MEASURE(0.01),#496,
'DISTANCE_ACCURACY_VALUE',
'Maximum model space distance between geometric entities at asserted c
onnectivities');
#494=(
GEOMETRIC_REPRESENTATION_CONTEXT(3)
GLOBAL_UNCERTAINTY_ASSIGNED_CONTEXT((#492))
GLOBAL_UNIT_ASSIGNED_CONTEXT((#496,#498,#499))
REPRESENTATION_CONTEXT('','3D')
);
#495=(
GEOMETRIC_REPRESENTATION_CONTEXT(3)
GLOBAL_UNCERTAINTY_ASSIGNED_CONTEXT((#493))
GLOBAL_UNIT_ASSIGNED_CONTEXT((#496,#498,#499))
REPRESENTATION_CONTEXT('','3D')
);
#496=(
LENGTH_UNIT()
NAMED_UNIT(*)
SI_UNIT(.MILLI.,.METRE.)
);
#497=(
LENGTH_UNIT()
NAMED_UNIT(*)
SI_UNIT($,.METRE.)
);
#498=(
NAMED_UNIT(*)
PLANE_ANGLE_UNIT()
SI_UNIT($,.RADIAN.)
);
#499=(
NAMED_UNIT(*)
SI_UNIT($,.STERADIAN.)
SOLID_ANGLE_UNIT()
);
#500=SHAPE_DEFINITION_REPRESENTATION(#501,#502);
#501=PRODUCT_DEFINITION_SHAPE('',$,#504);
#502=SHAPE_REPRESENTATION('',(#285),#494);
#503=PRODUCT_DEFINITION_CONTEXT('part definition',#508,'design');
#504=PRODUCT_DEFINITION('BFM Spigot 700mm','BFM Spigot 700mm v0',#505,#503);
#505=PRODUCT_DEFINITION_FORMATION('',$,#510);
#506=PRODUCT_RELATED_PRODUCT_CATEGORY('BFM Spigot 700mm v0',
'BFM Spigot 700mm v0',(#510));
#507=APPLICATION_PROTOCOL_DEFINITION('international standard',
'automotive_design',2009,#508);
#508=APPLICATION_CONTEXT(
'Core Data for Automotive Mechanical Design Process');
#509=PRODUCT_CONTEXT('part definition',#508,'mechanical');
#510=PRODUCT('BFM Spigot 700mm','BFM Spigot 700mm v0',$,(#509));
#511=PRESENTATION_STYLE_ASSIGNMENT((#512));
#512=SURFACE_STYLE_USAGE(.BOTH.,#513);
#513=SURFACE_SIDE_STYLE('',(#514));
#514=SURFACE_STYLE_FILL_AREA(#515);
#515=FILL_AREA_STYLE('Steel - Satin',(#516));
#516=FILL_AREA_STYLE_COLOUR('Steel - Satin',#517);
#517=COLOUR_RGB('Steel - Satin',0.627450980392157,0.627450980392157,0.627450980392157);
ENDSEC;
END-ISO-10303-21;
