ISO-10303-21;
HEADER;
/* Generated by software containing ST-Developer
 * from STEP Tools, Inc. (www.steptools.com) 
 */

FILE_DESCRIPTION(
/* description */ (''),
/* implementation_level */ '2;1');

FILE_NAME(
/* name */ 
'M:/Public/Photos, Drawings, Video/CAD Drawings/BFM Spigot 750mm v1.st
ep',
/* time_stamp */ '2020-12-02T07:31:58+13:00',
/* author */ (''),
/* organization */ (''),
/* preprocessor_version */ 'ST-DEVELOPER v18.1',
/* originating_system */ 'Autodesk Translation Framework v9.3.0.1241',
/* authorisation */ '');

FILE_SCHEMA (('AUTOMOTIVE_DESIGN { 1 0 10303 214 3 1 1 }'));
ENDSEC;

DATA;
#10=MECHANICAL_DESIGN_GEOMETRIC_PRESENTATION_REPRESENTATION('',(#13),#495);
#11=SHAPE_REPRESENTATION_RELATIONSHIP('SRR','None',#502,#12);
#12=ADVANCED_BREP_SHAPE_REPRESENTATION('',(#14),#494);
#13=STYLED_ITEM('',(#511),#14);
#14=MANIFOLD_SOLID_BREP('Body6',#272);
#15=CYLINDRICAL_SURFACE('',#303,386.000000000001);
#16=CYLINDRICAL_SURFACE('',#307,381.75019649365);
#17=CYLINDRICAL_SURFACE('',#311,386.);
#18=CYLINDRICAL_SURFACE('',#319,388.000000000001);
#19=CYLINDRICAL_SURFACE('',#323,383.75019649365);
#20=FACE_BOUND('',#49,.T.);
#21=FACE_BOUND('',#52,.T.);
#22=FACE_BOUND('',#62,.T.);
#23=PLANE('',#293);
#24=PLANE('',#297);
#25=PLANE('',#315);
#26=FACE_OUTER_BOUND('',#45,.T.);
#27=FACE_OUTER_BOUND('',#46,.T.);
#28=FACE_OUTER_BOUND('',#47,.T.);
#29=FACE_OUTER_BOUND('',#48,.T.);
#30=FACE_OUTER_BOUND('',#50,.T.);
#31=FACE_OUTER_BOUND('',#51,.T.);
#32=FACE_OUTER_BOUND('',#53,.T.);
#33=FACE_OUTER_BOUND('',#54,.T.);
#34=FACE_OUTER_BOUND('',#55,.T.);
#35=FACE_OUTER_BOUND('',#56,.T.);
#36=FACE_OUTER_BOUND('',#57,.T.);
#37=FACE_OUTER_BOUND('',#58,.T.);
#38=FACE_OUTER_BOUND('',#59,.T.);
#39=FACE_OUTER_BOUND('',#60,.T.);
#40=FACE_OUTER_BOUND('',#61,.T.);
#41=FACE_OUTER_BOUND('',#63,.T.);
#42=FACE_OUTER_BOUND('',#64,.T.);
#43=FACE_OUTER_BOUND('',#65,.T.);
#44=FACE_OUTER_BOUND('',#66,.T.);
#45=EDGE_LOOP('',(#172,#173,#174,#175));
#46=EDGE_LOOP('',(#176,#177,#178,#179));
#47=EDGE_LOOP('',(#180,#181,#182,#183));
#48=EDGE_LOOP('',(#184));
#49=EDGE_LOOP('',(#185));
#50=EDGE_LOOP('',(#186,#187,#188,#189));
#51=EDGE_LOOP('',(#190));
#52=EDGE_LOOP('',(#191));
#53=EDGE_LOOP('',(#192,#193,#194,#195));
#54=EDGE_LOOP('',(#196,#197,#198,#199));
#55=EDGE_LOOP('',(#200,#201,#202,#203));
#56=EDGE_LOOP('',(#204,#205,#206,#207));
#57=EDGE_LOOP('',(#208,#209,#210,#211));
#58=EDGE_LOOP('',(#212,#213,#214,#215));
#59=EDGE_LOOP('',(#216,#217,#218,#219));
#60=EDGE_LOOP('',(#220,#221,#222,#223));
#61=EDGE_LOOP('',(#224));
#62=EDGE_LOOP('',(#225));
#63=EDGE_LOOP('',(#226,#227,#228,#229));
#64=EDGE_LOOP('',(#230,#231,#232,#233));
#65=EDGE_LOOP('',(#234,#235,#236,#237));
#66=EDGE_LOOP('',(#238,#239,#240,#241));
#67=LINE('',#423,#83);
#68=LINE('',#428,#84);
#69=LINE('',#432,#85);
#70=LINE('',#439,#86);
#71=LINE('',#445,#87);
#72=LINE('',#449,#88);
#73=LINE('',#453,#89);
#74=LINE('',#457,#90);
#75=LINE('',#461,#91);
#76=LINE('',#465,#92);
#77=LINE('',#469,#93);
#78=LINE('',#473,#94);
#79=LINE('',#481,#95);
#80=LINE('',#485,#96);
#81=LINE('',#489,#97);
#82=LINE('',#491,#98);
#83=VECTOR('',#330,385.875098246825);
#84=VECTOR('',#337,387.993320791745);
#85=VECTOR('',#342,385.868419038569);
#86=VECTOR('',#351,378.362598246825);
#87=VECTOR('',#358,376.36396871207);
#88=VECTOR('',#363,381.863968712071);
#89=VECTOR('',#368,386.000000000001);
#90=VECTOR('',#373,383.875098246825);
#91=VECTOR('',#378,381.75019649365);
#92=VECTOR('',#383,383.875098246825);
#93=VECTOR('',#388,386.);
#94=VECTOR('',#393,383.875098246825);
#95=VECTOR('',#404,385.866287789885);
#96=VECTOR('',#409,388.000000000001);
#97=VECTOR('',#414,385.875098246825);
#98=VECTOR('',#417,383.75019649365);
#99=CIRCLE('',#287,388.);
#100=CIRCLE('',#288,383.75019649365);
#101=CIRCLE('',#290,387.986641583489);
#102=CIRCLE('',#292,383.75019649365);
#103=CIRCLE('',#294,379.72519649365);
#104=CIRCLE('',#296,377.);
#105=CIRCLE('',#298,375.);
#106=CIRCLE('',#300,377.727937424141);
#107=CIRCLE('',#302,386.000000000001);
#108=CIRCLE('',#304,386.);
#109=CIRCLE('',#306,381.75019649365);
#110=CIRCLE('',#308,381.75019649365);
#111=CIRCLE('',#310,386.);
#112=CIRCLE('',#312,386.);
#113=CIRCLE('',#314,381.75019649365);
#114=CIRCLE('',#316,383.732575579769);
#115=CIRCLE('',#318,388.000000000001);
#116=CIRCLE('',#320,388.000000000001);
#117=CIRCLE('',#322,383.75019649365);
#118=VERTEX_POINT('',#420);
#119=VERTEX_POINT('',#422);
#120=VERTEX_POINT('',#426);
#121=VERTEX_POINT('',#430);
#122=VERTEX_POINT('',#434);
#123=VERTEX_POINT('',#437);
#124=VERTEX_POINT('',#441);
#125=VERTEX_POINT('',#444);
#126=VERTEX_POINT('',#448);
#127=VERTEX_POINT('',#452);
#128=VERTEX_POINT('',#456);
#129=VERTEX_POINT('',#460);
#130=VERTEX_POINT('',#464);
#131=VERTEX_POINT('',#468);
#132=VERTEX_POINT('',#472);
#133=VERTEX_POINT('',#476);
#134=VERTEX_POINT('',#479);
#135=VERTEX_POINT('',#483);
#136=VERTEX_POINT('',#487);
#137=EDGE_CURVE('',#118,#118,#99,.T.);
#138=EDGE_CURVE('',#118,#119,#67,.T.);
#139=EDGE_CURVE('',#119,#119,#100,.T.);
#140=EDGE_CURVE('',#120,#120,#101,.T.);
#141=EDGE_CURVE('',#120,#118,#68,.T.);
#142=EDGE_CURVE('',#121,#121,#102,.T.);
#143=EDGE_CURVE('',#121,#120,#69,.T.);
#144=EDGE_CURVE('',#122,#122,#103,.T.);
#145=EDGE_CURVE('',#123,#123,#104,.T.);
#146=EDGE_CURVE('',#123,#122,#70,.T.);
#147=EDGE_CURVE('',#124,#124,#105,.T.);
#148=EDGE_CURVE('',#124,#125,#71,.T.);
#149=EDGE_CURVE('',#125,#125,#106,.T.);
#150=EDGE_CURVE('',#125,#126,#72,.T.);
#151=EDGE_CURVE('',#126,#126,#107,.T.);
#152=EDGE_CURVE('',#126,#127,#73,.T.);
#153=EDGE_CURVE('',#127,#127,#108,.T.);
#154=EDGE_CURVE('',#127,#128,#74,.T.);
#155=EDGE_CURVE('',#128,#128,#109,.T.);
#156=EDGE_CURVE('',#128,#129,#75,.T.);
#157=EDGE_CURVE('',#129,#129,#110,.T.);
#158=EDGE_CURVE('',#129,#130,#76,.T.);
#159=EDGE_CURVE('',#130,#130,#111,.T.);
#160=EDGE_CURVE('',#130,#131,#77,.T.);
#161=EDGE_CURVE('',#131,#131,#112,.T.);
#162=EDGE_CURVE('',#131,#132,#78,.T.);
#163=EDGE_CURVE('',#132,#132,#113,.T.);
#164=EDGE_CURVE('',#133,#133,#114,.T.);
#165=EDGE_CURVE('',#134,#134,#115,.T.);
#166=EDGE_CURVE('',#134,#133,#79,.T.);
#167=EDGE_CURVE('',#135,#135,#116,.T.);
#168=EDGE_CURVE('',#135,#134,#80,.T.);
#169=EDGE_CURVE('',#136,#136,#117,.T.);
#170=EDGE_CURVE('',#136,#135,#81,.T.);
#171=EDGE_CURVE('',#119,#136,#82,.T.);
#172=ORIENTED_EDGE('',*,*,#137,.F.);
#173=ORIENTED_EDGE('',*,*,#138,.T.);
#174=ORIENTED_EDGE('',*,*,#139,.T.);
#175=ORIENTED_EDGE('',*,*,#138,.F.);
#176=ORIENTED_EDGE('',*,*,#140,.F.);
#177=ORIENTED_EDGE('',*,*,#141,.T.);
#178=ORIENTED_EDGE('',*,*,#137,.T.);
#179=ORIENTED_EDGE('',*,*,#141,.F.);
#180=ORIENTED_EDGE('',*,*,#142,.F.);
#181=ORIENTED_EDGE('',*,*,#143,.T.);
#182=ORIENTED_EDGE('',*,*,#140,.T.);
#183=ORIENTED_EDGE('',*,*,#143,.F.);
#184=ORIENTED_EDGE('',*,*,#142,.T.);
#185=ORIENTED_EDGE('',*,*,#144,.F.);
#186=ORIENTED_EDGE('',*,*,#145,.F.);
#187=ORIENTED_EDGE('',*,*,#146,.T.);
#188=ORIENTED_EDGE('',*,*,#144,.T.);
#189=ORIENTED_EDGE('',*,*,#146,.F.);
#190=ORIENTED_EDGE('',*,*,#145,.T.);
#191=ORIENTED_EDGE('',*,*,#147,.F.);
#192=ORIENTED_EDGE('',*,*,#147,.T.);
#193=ORIENTED_EDGE('',*,*,#148,.T.);
#194=ORIENTED_EDGE('',*,*,#149,.F.);
#195=ORIENTED_EDGE('',*,*,#148,.F.);
#196=ORIENTED_EDGE('',*,*,#149,.T.);
#197=ORIENTED_EDGE('',*,*,#150,.T.);
#198=ORIENTED_EDGE('',*,*,#151,.F.);
#199=ORIENTED_EDGE('',*,*,#150,.F.);
#200=ORIENTED_EDGE('',*,*,#151,.T.);
#201=ORIENTED_EDGE('',*,*,#152,.T.);
#202=ORIENTED_EDGE('',*,*,#153,.F.);
#203=ORIENTED_EDGE('',*,*,#152,.F.);
#204=ORIENTED_EDGE('',*,*,#153,.T.);
#205=ORIENTED_EDGE('',*,*,#154,.T.);
#206=ORIENTED_EDGE('',*,*,#155,.F.);
#207=ORIENTED_EDGE('',*,*,#154,.F.);
#208=ORIENTED_EDGE('',*,*,#155,.T.);
#209=ORIENTED_EDGE('',*,*,#156,.T.);
#210=ORIENTED_EDGE('',*,*,#157,.F.);
#211=ORIENTED_EDGE('',*,*,#156,.F.);
#212=ORIENTED_EDGE('',*,*,#157,.T.);
#213=ORIENTED_EDGE('',*,*,#158,.T.);
#214=ORIENTED_EDGE('',*,*,#159,.F.);
#215=ORIENTED_EDGE('',*,*,#158,.F.);
#216=ORIENTED_EDGE('',*,*,#159,.T.);
#217=ORIENTED_EDGE('',*,*,#160,.T.);
#218=ORIENTED_EDGE('',*,*,#161,.F.);
#219=ORIENTED_EDGE('',*,*,#160,.F.);
#220=ORIENTED_EDGE('',*,*,#161,.T.);
#221=ORIENTED_EDGE('',*,*,#162,.T.);
#222=ORIENTED_EDGE('',*,*,#163,.F.);
#223=ORIENTED_EDGE('',*,*,#162,.F.);
#224=ORIENTED_EDGE('',*,*,#164,.F.);
#225=ORIENTED_EDGE('',*,*,#163,.T.);
#226=ORIENTED_EDGE('',*,*,#165,.F.);
#227=ORIENTED_EDGE('',*,*,#166,.T.);
#228=ORIENTED_EDGE('',*,*,#164,.T.);
#229=ORIENTED_EDGE('',*,*,#166,.F.);
#230=ORIENTED_EDGE('',*,*,#167,.F.);
#231=ORIENTED_EDGE('',*,*,#168,.T.);
#232=ORIENTED_EDGE('',*,*,#165,.T.);
#233=ORIENTED_EDGE('',*,*,#168,.F.);
#234=ORIENTED_EDGE('',*,*,#169,.F.);
#235=ORIENTED_EDGE('',*,*,#170,.T.);
#236=ORIENTED_EDGE('',*,*,#167,.T.);
#237=ORIENTED_EDGE('',*,*,#170,.F.);
#238=ORIENTED_EDGE('',*,*,#139,.F.);
#239=ORIENTED_EDGE('',*,*,#171,.T.);
#240=ORIENTED_EDGE('',*,*,#169,.T.);
#241=ORIENTED_EDGE('',*,*,#171,.F.);
#242=CONICAL_SURFACE('',#286,385.875098246825,0.785029215764838);
#243=CONICAL_SURFACE('',#289,387.993320791745,0.00200268481934889);
#244=CONICAL_SURFACE('',#291,385.868419038569,0.785767111030058);
#245=CONICAL_SURFACE('',#295,378.362598246825,0.0523598775598355);
#246=CONICAL_SURFACE('',#299,376.36396871207,0.052307345039779);
#247=CONICAL_SURFACE('',#301,381.863968712071,1.13044495292682);
#248=CONICAL_SURFACE('',#305,383.875098246825,0.785029215764777);
#249=CONICAL_SURFACE('',#309,383.875098246825,0.785767111030066);
#250=CONICAL_SURFACE('',#313,383.875098246825,0.782960366933207);
#251=CONICAL_SURFACE('',#317,385.866287789885,0.785029215764838);
#252=CONICAL_SURFACE('',#321,385.875098246825,0.785767111030082);
#253=ADVANCED_FACE('',(#26),#242,.T.);
#254=ADVANCED_FACE('',(#27),#243,.T.);
#255=ADVANCED_FACE('',(#28),#244,.T.);
#256=ADVANCED_FACE('',(#29,#20),#23,.T.);
#257=ADVANCED_FACE('',(#30),#245,.T.);
#258=ADVANCED_FACE('',(#31,#21),#24,.T.);
#259=ADVANCED_FACE('',(#32),#246,.F.);
#260=ADVANCED_FACE('',(#33),#247,.F.);
#261=ADVANCED_FACE('',(#34),#15,.F.);
#262=ADVANCED_FACE('',(#35),#248,.F.);
#263=ADVANCED_FACE('',(#36),#16,.F.);
#264=ADVANCED_FACE('',(#37),#249,.F.);
#265=ADVANCED_FACE('',(#38),#17,.F.);
#266=ADVANCED_FACE('',(#39),#250,.F.);
#267=ADVANCED_FACE('',(#40,#22),#25,.T.);
#268=ADVANCED_FACE('',(#41),#251,.T.);
#269=ADVANCED_FACE('',(#42),#18,.T.);
#270=ADVANCED_FACE('',(#43),#252,.T.);
#271=ADVANCED_FACE('',(#44),#19,.T.);
#272=CLOSED_SHELL('',(#253,#254,#255,#256,#257,#258,#259,#260,#261,#262,
#263,#264,#265,#266,#267,#268,#269,#270,#271));
#273=DERIVED_UNIT_ELEMENT(#275,1.);
#274=DERIVED_UNIT_ELEMENT(#497,3.);
#275=(
MASS_UNIT()
NAMED_UNIT(*)
SI_UNIT(.KILO.,.GRAM.)
);
#276=DERIVED_UNIT((#273,#274));
#277=MEASURE_REPRESENTATION_ITEM('density measure',
POSITIVE_RATIO_MEASURE(8080.),#276);
#278=PROPERTY_DEFINITION_REPRESENTATION(#283,#280);
#279=PROPERTY_DEFINITION_REPRESENTATION(#284,#281);
#280=REPRESENTATION('material name',(#282),#494);
#281=REPRESENTATION('density',(#277),#494);
#282=DESCRIPTIVE_REPRESENTATION_ITEM('304L Stainless Steel',
'304L Stainless Steel');
#283=PROPERTY_DEFINITION('material property','material name',#504);
#284=PROPERTY_DEFINITION('material property','density of part',#504);
#285=AXIS2_PLACEMENT_3D('placement',#418,#324,#325);
#286=AXIS2_PLACEMENT_3D('',#419,#326,#327);
#287=AXIS2_PLACEMENT_3D('',#421,#328,#329);
#288=AXIS2_PLACEMENT_3D('',#424,#331,#332);
#289=AXIS2_PLACEMENT_3D('',#425,#333,#334);
#290=AXIS2_PLACEMENT_3D('',#427,#335,#336);
#291=AXIS2_PLACEMENT_3D('',#429,#338,#339);
#292=AXIS2_PLACEMENT_3D('',#431,#340,#341);
#293=AXIS2_PLACEMENT_3D('',#433,#343,#344);
#294=AXIS2_PLACEMENT_3D('',#435,#345,#346);
#295=AXIS2_PLACEMENT_3D('',#436,#347,#348);
#296=AXIS2_PLACEMENT_3D('',#438,#349,#350);
#297=AXIS2_PLACEMENT_3D('',#440,#352,#353);
#298=AXIS2_PLACEMENT_3D('',#442,#354,#355);
#299=AXIS2_PLACEMENT_3D('',#443,#356,#357);
#300=AXIS2_PLACEMENT_3D('',#446,#359,#360);
#301=AXIS2_PLACEMENT_3D('',#447,#361,#362);
#302=AXIS2_PLACEMENT_3D('',#450,#364,#365);
#303=AXIS2_PLACEMENT_3D('',#451,#366,#367);
#304=AXIS2_PLACEMENT_3D('',#454,#369,#370);
#305=AXIS2_PLACEMENT_3D('',#455,#371,#372);
#306=AXIS2_PLACEMENT_3D('',#458,#374,#375);
#307=AXIS2_PLACEMENT_3D('',#459,#376,#377);
#308=AXIS2_PLACEMENT_3D('',#462,#379,#380);
#309=AXIS2_PLACEMENT_3D('',#463,#381,#382);
#310=AXIS2_PLACEMENT_3D('',#466,#384,#385);
#311=AXIS2_PLACEMENT_3D('',#467,#386,#387);
#312=AXIS2_PLACEMENT_3D('',#470,#389,#390);
#313=AXIS2_PLACEMENT_3D('',#471,#391,#392);
#314=AXIS2_PLACEMENT_3D('',#474,#394,#395);
#315=AXIS2_PLACEMENT_3D('',#475,#396,#397);
#316=AXIS2_PLACEMENT_3D('',#477,#398,#399);
#317=AXIS2_PLACEMENT_3D('',#478,#400,#401);
#318=AXIS2_PLACEMENT_3D('',#480,#402,#403);
#319=AXIS2_PLACEMENT_3D('',#482,#405,#406);
#320=AXIS2_PLACEMENT_3D('',#484,#407,#408);
#321=AXIS2_PLACEMENT_3D('',#486,#410,#411);
#322=AXIS2_PLACEMENT_3D('',#488,#412,#413);
#323=AXIS2_PLACEMENT_3D('',#490,#415,#416);
#324=DIRECTION('axis',(0.,0.,1.));
#325=DIRECTION('refdir',(1.,0.,0.));
#326=DIRECTION('center_axis',(0.,-1.,0.));
#327=DIRECTION('ref_axis',(1.,0.,0.));
#328=DIRECTION('center_axis',(0.,-1.,0.));
#329=DIRECTION('ref_axis',(1.,0.,0.));
#330=DIRECTION('',(0.706845847693025,0.70736761842703,8.65636504867861E-17));
#331=DIRECTION('center_axis',(0.,-1.,0.));
#332=DIRECTION('ref_axis',(1.,0.,0.));
#333=DIRECTION('center_axis',(0.,1.,0.));
#334=DIRECTION('ref_axis',(1.,0.,0.));
#335=DIRECTION('center_axis',(0.,-1.,0.));
#336=DIRECTION('ref_axis',(1.,0.,0.));
#337=DIRECTION('',(-0.00200268348063897,0.999997994627427,-2.4525799142698E-19));
#338=DIRECTION('center_axis',(0.,1.,0.));
#339=DIRECTION('ref_axis',(1.,0.,0.));
#340=DIRECTION('center_axis',(0.,-1.,0.));
#341=DIRECTION('ref_axis',(1.,0.,0.));
#342=DIRECTION('',(-0.70736761842703,0.706845847693025,-8.66275489727149E-17));
#343=DIRECTION('center_axis',(0.,-1.,0.));
#344=DIRECTION('ref_axis',(0.,0.,-1.));
#345=DIRECTION('center_axis',(0.,-1.,0.));
#346=DIRECTION('ref_axis',(1.,0.,0.));
#347=DIRECTION('center_axis',(0.,1.,0.));
#348=DIRECTION('ref_axis',(1.,0.,0.));
#349=DIRECTION('center_axis',(0.,-1.,0.));
#350=DIRECTION('ref_axis',(1.,0.,0.));
#351=DIRECTION('',(-0.0523359562429495,0.998629534754574,-6.4093061293244E-18));
#352=DIRECTION('center_axis',(0.,-1.,0.));
#353=DIRECTION('ref_axis',(0.,0.,-1.));
#354=DIRECTION('center_axis',(0.,-1.,0.));
#355=DIRECTION('ref_axis',(1.,0.,0.));
#356=DIRECTION('center_axis',(0.,1.,0.));
#357=DIRECTION('ref_axis',(1.,0.,0.));
#358=DIRECTION('',(-0.0522834956446952,0.998632282716301,-6.40288155895106E-18));
#359=DIRECTION('center_axis',(0.,-1.,0.));
#360=DIRECTION('ref_axis',(1.,0.,0.));
#361=DIRECTION('center_axis',(0.,1.,0.));
#362=DIRECTION('ref_axis',(1.,0.,0.));
#363=DIRECTION('',(-0.904601943373691,0.426257344857003,-1.10781787445507E-16));
#364=DIRECTION('center_axis',(0.,-1.,0.));
#365=DIRECTION('ref_axis',(1.,0.,0.));
#366=DIRECTION('center_axis',(0.,-1.,0.));
#367=DIRECTION('ref_axis',(1.,0.,0.));
#368=DIRECTION('',(0.,1.,0.));
#369=DIRECTION('center_axis',(0.,-1.,0.));
#370=DIRECTION('ref_axis',(1.,0.,0.));
#371=DIRECTION('center_axis',(0.,-1.,0.));
#372=DIRECTION('ref_axis',(1.,0.,0.));
#373=DIRECTION('',(0.706845847692982,0.707367618427074,8.65636504867808E-17));
#374=DIRECTION('center_axis',(0.,-1.,0.));
#375=DIRECTION('ref_axis',(1.,0.,0.));
#376=DIRECTION('center_axis',(0.,-1.,0.));
#377=DIRECTION('ref_axis',(1.,0.,0.));
#378=DIRECTION('',(0.,1.,0.));
#379=DIRECTION('center_axis',(0.,-1.,0.));
#380=DIRECTION('ref_axis',(1.,0.,0.));
#381=DIRECTION('center_axis',(0.,1.,0.));
#382=DIRECTION('ref_axis',(1.,0.,0.));
#383=DIRECTION('',(-0.707367618427035,0.70684584769302,-8.66275489727155E-17));
#384=DIRECTION('center_axis',(0.,-1.,0.));
#385=DIRECTION('ref_axis',(1.,0.,0.));
#386=DIRECTION('center_axis',(0.,-1.,0.));
#387=DIRECTION('ref_axis',(1.,0.,0.));
#388=DIRECTION('',(0.,1.,0.));
#389=DIRECTION('center_axis',(0.,-1.,0.));
#390=DIRECTION('ref_axis',(1.,0.,0.));
#391=DIRECTION('center_axis',(0.,-1.,0.));
#392=DIRECTION('ref_axis',(1.,0.,0.));
#393=DIRECTION('',(0.7053808993686,0.708828460775909,8.63842460591438E-17));
#394=DIRECTION('center_axis',(0.,-1.,0.));
#395=DIRECTION('ref_axis',(1.,0.,0.));
#396=DIRECTION('center_axis',(0.,1.,0.));
#397=DIRECTION('ref_axis',(0.,0.,1.));
#398=DIRECTION('center_axis',(0.,-1.,0.));
#399=DIRECTION('ref_axis',(1.,0.,0.));
#400=DIRECTION('center_axis',(0.,-1.,0.));
#401=DIRECTION('ref_axis',(1.,0.,0.));
#402=DIRECTION('center_axis',(0.,-1.,0.));
#403=DIRECTION('ref_axis',(1.,0.,0.));
#404=DIRECTION('',(0.706845847693025,0.707367618427031,8.6563650486786E-17));
#405=DIRECTION('center_axis',(0.,-1.,0.));
#406=DIRECTION('ref_axis',(1.,0.,0.));
#407=DIRECTION('center_axis',(0.,-1.,0.));
#408=DIRECTION('ref_axis',(1.,0.,0.));
#409=DIRECTION('',(0.,1.,0.));
#410=DIRECTION('center_axis',(0.,1.,0.));
#411=DIRECTION('ref_axis',(1.,0.,0.));
#412=DIRECTION('center_axis',(0.,-1.,0.));
#413=DIRECTION('ref_axis',(1.,0.,0.));
#414=DIRECTION('',(-0.707367618427047,0.706845847693008,-8.6627548972717E-17));
#415=DIRECTION('center_axis',(0.,-1.,0.));
#416=DIRECTION('ref_axis',(1.,0.,0.));
#417=DIRECTION('',(0.,1.,0.));
#418=CARTESIAN_POINT('',(0.,0.,0.));
#419=CARTESIAN_POINT('Origin',(0.,65.0298823976761,0.));
#420=CARTESIAN_POINT('',(-388.,62.9034121107802,-4.75162958069174E-14));
#421=CARTESIAN_POINT('Origin',(0.,62.9034121107802,0.));
#422=CARTESIAN_POINT('',(-383.75019649365,67.156352684572,-4.69958449808116E-14));
#423=CARTESIAN_POINT('',(-385.875098246825,65.0298823976761,-4.72560703938645E-14));
#424=CARTESIAN_POINT('Origin',(0.,67.156352684572,0.));
#425=CARTESIAN_POINT('Origin',(0.,59.5682895484376,0.));
#426=CARTESIAN_POINT('',(-387.986641583489,56.233166986095,-4.75146598727151E-14));
#427=CARTESIAN_POINT('Origin',(0.,56.233166986095,0.));
#428=CARTESIAN_POINT('',(-387.993320791745,59.5682895484376,-4.75154778398162E-14));
#429=CARTESIAN_POINT('Origin',(0.,54.1165068911708,0.));
#430=CARTESIAN_POINT('',(-383.75019649365,51.9998467962466,-4.69958449808116E-14));
#431=CARTESIAN_POINT('Origin',(0.,51.9998467962466,0.));
#432=CARTESIAN_POINT('',(-385.868419038569,54.1165068911708,-4.72552524267634E-14));
#433=CARTESIAN_POINT('Origin',(379.72519649365,51.9998467962466,0.));
#434=CARTESIAN_POINT('',(-379.72519649365,51.9998467962466,-4.65029246441548E-14));
#435=CARTESIAN_POINT('Origin',(0.,51.9998467962466,0.));
#436=CARTESIAN_POINT('Origin',(0.,25.9999233981233,0.));
#437=CARTESIAN_POINT('',(-377.,0.,-4.61691843278552E-14));
#438=CARTESIAN_POINT('Origin',(0.,0.,0.));
#439=CARTESIAN_POINT('',(-378.362598246825,25.9999233981233,-4.6336054486005E-14));
#440=CARTESIAN_POINT('Origin',(375.,-6.72180926226288E-30,0.));
#441=CARTESIAN_POINT('',(-375.,-4.44089209850063E-15,-4.59242549680257E-14));
#442=CARTESIAN_POINT('Origin',(0.,0.,0.));
#443=CARTESIAN_POINT('Origin',(0.,26.0522593543663,0.));
#444=CARTESIAN_POINT('',(-377.727937424141,52.1045187087326,-4.62583309515006E-14));
#445=CARTESIAN_POINT('',(-376.36396871207,26.0522593543663,-4.60912929597632E-14));
#446=CARTESIAN_POINT('Origin',(0.,52.1045187087326,0.));
#447=CARTESIAN_POINT('Origin',(0.,54.0534573860732,0.));
#448=CARTESIAN_POINT('',(-386.000000000001,56.0023960634138,-4.72713664470879E-14));
#449=CARTESIAN_POINT('',(-381.863968712071,54.0534573860732,-4.67648486992942E-14));
#450=CARTESIAN_POINT('Origin',(0.,56.0023960634138,0.));
#451=CARTESIAN_POINT('Origin',(0.,59.4529040870968,0.));
#452=CARTESIAN_POINT('',(-386.000000000001,62.9034121107797,-4.72713664470879E-14));
#453=CARTESIAN_POINT('',(-386.000000000001,59.4529040870968,-4.72713664470879E-14));
#454=CARTESIAN_POINT('Origin',(0.,62.9034121107797,0.));
#455=CARTESIAN_POINT('Origin',(0.,65.0298823976758,0.));
#456=CARTESIAN_POINT('',(-381.75019649365,67.156352684572,-4.67509156209822E-14));
#457=CARTESIAN_POINT('',(-383.875098246825,65.0298823976758,-4.7011141034035E-14));
#458=CARTESIAN_POINT('Origin',(0.,67.156352684572,0.));
#459=CARTESIAN_POINT('Origin',(0.,70.4879357759349,0.));
#460=CARTESIAN_POINT('',(-381.75019649365,73.8195188672979,-4.67509156209822E-14));
#461=CARTESIAN_POINT('',(-381.75019649365,70.4879357759349,-4.67509156209822E-14));
#462=CARTESIAN_POINT('Origin',(0.,73.8195188672979,0.));
#463=CARTESIAN_POINT('Origin',(0.,75.9428532437391,0.));
#464=CARTESIAN_POINT('',(-386.,78.0661876201803,-4.72713664470879E-14));
#465=CARTESIAN_POINT('',(-383.875098246825,75.9428532437391,-4.7011141034035E-14));
#466=CARTESIAN_POINT('Origin',(0.,78.0661876201803,0.));
#467=CARTESIAN_POINT('Origin',(0.,81.3977299607825,0.));
#468=CARTESIAN_POINT('',(-386.,84.7292723013847,-4.72713664470879E-14));
#469=CARTESIAN_POINT('',(-386.,81.3977299607825,-4.72713664470879E-14));
#470=CARTESIAN_POINT('Origin',(0.,84.7292723013847,0.));
#471=CARTESIAN_POINT('Origin',(0.,86.8645595488157,0.));
#472=CARTESIAN_POINT('',(-381.75019649365,88.9998467962467,-4.67509156209822E-14));
#473=CARTESIAN_POINT('',(-383.875098246825,86.8645595488157,-4.7011141034035E-14));
#474=CARTESIAN_POINT('Origin',(0.,88.9998467962467,0.));
#475=CARTESIAN_POINT('Origin',(383.732575579769,88.9998467962467,0.));
#476=CARTESIAN_POINT('',(-383.732575579769,88.9998467962465,-4.69936870412333E-14));
#477=CARTESIAN_POINT('Origin',(0.,88.9998467962467,0.));
#478=CARTESIAN_POINT('Origin',(0.,86.8645595488156,0.));
#479=CARTESIAN_POINT('',(-388.000000000001,84.7292723013847,-4.75162958069174E-14));
#480=CARTESIAN_POINT('Origin',(0.,84.7292723013847,0.));
#481=CARTESIAN_POINT('',(-385.866287789885,86.8645595488156,-4.72549914240754E-14));
#482=CARTESIAN_POINT('Origin',(0.,81.3977299607825,0.));
#483=CARTESIAN_POINT('',(-388.000000000001,78.0661876201803,-4.75162958069174E-14));
#484=CARTESIAN_POINT('Origin',(0.,78.0661876201803,0.));
#485=CARTESIAN_POINT('',(-388.000000000001,81.3977299607825,-4.75162958069174E-14));
#486=CARTESIAN_POINT('Origin',(0.,75.9428532437391,0.));
#487=CARTESIAN_POINT('',(-383.75019649365,73.8195188672979,-4.69958449808116E-14));
#488=CARTESIAN_POINT('Origin',(0.,73.8195188672979,0.));
#489=CARTESIAN_POINT('',(-385.875098246825,75.9428532437391,-4.72560703938645E-14));
#490=CARTESIAN_POINT('Origin',(0.,70.4879357759349,0.));
#491=CARTESIAN_POINT('',(-383.75019649365,70.4879357759349,-4.69958449808116E-14));
#492=UNCERTAINTY_MEASURE_WITH_UNIT(LENGTH_MEASURE(0.01),#496,
'DISTANCE_ACCURACY_VALUE',
'Maximum model space distance between geometric entities at asserted c
onnectivities');
#493=UNCERTAINTY_MEASURE_WITH_UNIT(LENGTH_MEASURE(0.01),#496,
'DISTANCE_ACCURACY_VALUE',
'Maximum model space distance between geometric entities at asserted c
onnectivities');
#494=(
GEOMETRIC_REPRESENTATION_CONTEXT(3)
GLOBAL_UNCERTAINTY_ASSIGNED_CONTEXT((#492))
GLOBAL_UNIT_ASSIGNED_CONTEXT((#496,#498,#499))
REPRESENTATION_CONTEXT('','3D')
);
#495=(
GEOMETRIC_REPRESENTATION_CONTEXT(3)
GLOBAL_UNCERTAINTY_ASSIGNED_CONTEXT((#493))
GLOBAL_UNIT_ASSIGNED_CONTEXT((#496,#498,#499))
REPRESENTATION_CONTEXT('','3D')
);
#496=(
LENGTH_UNIT()
NAMED_UNIT(*)
SI_UNIT(.MILLI.,.METRE.)
);
#497=(
LENGTH_UNIT()
NAMED_UNIT(*)
SI_UNIT($,.METRE.)
);
#498=(
NAMED_UNIT(*)
PLANE_ANGLE_UNIT()
SI_UNIT($,.RADIAN.)
);
#499=(
NAMED_UNIT(*)
SI_UNIT($,.STERADIAN.)
SOLID_ANGLE_UNIT()
);
#500=SHAPE_DEFINITION_REPRESENTATION(#501,#502);
#501=PRODUCT_DEFINITION_SHAPE('',$,#504);
#502=SHAPE_REPRESENTATION('',(#285),#494);
#503=PRODUCT_DEFINITION_CONTEXT('part definition',#508,'design');
#504=PRODUCT_DEFINITION('BFM Spigot 750mm','BFM Spigot 750mm v1',#505,#503);
#505=PRODUCT_DEFINITION_FORMATION('',$,#510);
#506=PRODUCT_RELATED_PRODUCT_CATEGORY('BFM Spigot 750mm v1',
'BFM Spigot 750mm v1',(#510));
#507=APPLICATION_PROTOCOL_DEFINITION('international standard',
'automotive_design',2009,#508);
#508=APPLICATION_CONTEXT(
'Core Data for Automotive Mechanical Design Process');
#509=PRODUCT_CONTEXT('part definition',#508,'mechanical');
#510=PRODUCT('BFM Spigot 750mm','BFM Spigot 750mm v1',$,(#509));
#511=PRESENTATION_STYLE_ASSIGNMENT((#512));
#512=SURFACE_STYLE_USAGE(.BOTH.,#513);
#513=SURFACE_SIDE_STYLE('',(#514));
#514=SURFACE_STYLE_FILL_AREA(#515);
#515=FILL_AREA_STYLE('Steel - Satin',(#516));
#516=FILL_AREA_STYLE_COLOUR('Steel - Satin',#517);
#517=COLOUR_RGB('Steel - Satin',0.627450980392157,0.627450980392157,0.627450980392157);
ENDSEC;
END-ISO-10303-21;
