ISO-10303-21;
HEADER;
/* Generated by software containing ST-Developer
 * from STEP Tools, Inc. (www.steptools.com) 
 */

FILE_DESCRIPTION(
/* description */ (''),
/* implementation_level */ '2;1');

FILE_NAME(
/* name */ 'BFM Spigot 850mm v2.step',
/* time_stamp */ '2023-03-08T14:26:31+13:00',
/* author */ (''),
/* organization */ (''),
/* preprocessor_version */ 'ST-DEVELOPER v19.2',
/* originating_system */ 'Autodesk Translation Framework v11.17.0.187',

/* authorisation */ '');

FILE_SCHEMA (('AUTOMOTIVE_DESIGN { 1 0 10303 214 3 1 1 }'));
ENDSEC;

DATA;
#10=MECHANICAL_DESIGN_GEOMETRIC_PRESENTATION_REPRESENTATION('',(#18,#19),
#543);
#11=SHAPE_REPRESENTATION_RELATIONSHIP('SRR','None',#550,#12);
#12=ADVANCED_BREP_SHAPE_REPRESENTATION('',(#20,#21),#542);
#13=CYLINDRICAL_SURFACE('',#333,433.750196493651);
#14=CYLINDRICAL_SURFACE('',#337,438.000000000001);
#15=CYLINDRICAL_SURFACE('',#345,436.000000000001);
#16=CYLINDRICAL_SURFACE('',#349,431.750196493651);
#17=CYLINDRICAL_SURFACE('',#353,436.000000000001);
#18=STYLED_ITEM('',(#559),#20);
#19=STYLED_ITEM('',(#559),#21);
#20=MANIFOLD_SOLID_BREP('Body8',#299);
#21=MANIFOLD_SOLID_BREP('Body8',#300);
#22=LINE('',#467,#39);
#23=LINE('',#473,#40);
#24=LINE('',#478,#41);
#25=LINE('',#485,#42);
#26=LINE('',#489,#43);
#27=LINE('',#493,#44);
#28=LINE('',#497,#45);
#29=LINE('',#501,#46);
#30=LINE('',#505,#47);
#31=LINE('',#509,#48);
#32=LINE('',#517,#49);
#33=LINE('',#521,#50);
#34=LINE('',#525,#51);
#35=LINE('',#529,#52);
#36=LINE('',#533,#53);
#37=LINE('',#537,#54);
#38=LINE('',#539,#55);
#39=VECTOR('',#366,426.361228657711);
#40=VECTOR('',#375,428.362598246825);
#41=VECTOR('',#380,428.726566958896);
#42=VECTOR('',#389,435.86841903857);
#43=VECTOR('',#394,437.993320791745);
#44=VECTOR('',#399,435.875098246826);
#45=VECTOR('',#404,433.750196493651);
#46=VECTOR('',#409,435.875098246826);
#47=VECTOR('',#414,438.000000000001);
#48=VECTOR('',#419,435.866287789886);
#49=VECTOR('',#430,433.875098246826);
#50=VECTOR('',#435,436.000000000001);
#51=VECTOR('',#440,433.875098246826);
#52=VECTOR('',#445,431.750196493651);
#53=VECTOR('',#450,433.875098246826);
#54=VECTOR('',#455,436.000000000001);
#55=VECTOR('',#458,431.863968712071);
#56=CONICAL_SURFACE('',#317,426.361228657711,0.0523073450397921);
#57=CONICAL_SURFACE('',#321,428.362598246825,0.0523598775598464);
#58=CONICAL_SURFACE('',#322,428.726566958896,1.51843644923504);
#59=CONICAL_SURFACE('',#327,435.86841903857,0.785767111030052);
#60=CONICAL_SURFACE('',#329,437.993320791745,0.00200268481933824);
#61=CONICAL_SURFACE('',#331,435.875098246826,0.785029215764846);
#62=CONICAL_SURFACE('',#335,435.875098246826,0.785767111030078);
#63=CONICAL_SURFACE('',#339,435.866287789885,0.78502921576484);
#64=CONICAL_SURFACE('',#343,433.875098246826,0.782960366933203);
#65=CONICAL_SURFACE('',#347,433.875098246826,0.78576711103006);
#66=CONICAL_SURFACE('',#351,433.875098246826,0.785029215764777);
#67=CONICAL_SURFACE('',#355,431.863968712071,1.13044495292681);
#68=FACE_BOUND('',#94,.T.);
#69=FACE_BOUND('',#97,.T.);
#70=FACE_BOUND('',#101,.T.);
#71=FACE_BOUND('',#110,.T.);
#72=FACE_OUTER_BOUND('',#93,.T.);
#73=FACE_OUTER_BOUND('',#95,.T.);
#74=FACE_OUTER_BOUND('',#96,.T.);
#75=FACE_OUTER_BOUND('',#98,.T.);
#76=FACE_OUTER_BOUND('',#99,.T.);
#77=FACE_OUTER_BOUND('',#100,.T.);
#78=FACE_OUTER_BOUND('',#102,.T.);
#79=FACE_OUTER_BOUND('',#103,.T.);
#80=FACE_OUTER_BOUND('',#104,.T.);
#81=FACE_OUTER_BOUND('',#105,.T.);
#82=FACE_OUTER_BOUND('',#106,.T.);
#83=FACE_OUTER_BOUND('',#107,.T.);
#84=FACE_OUTER_BOUND('',#108,.T.);
#85=FACE_OUTER_BOUND('',#109,.T.);
#86=FACE_OUTER_BOUND('',#111,.T.);
#87=FACE_OUTER_BOUND('',#112,.T.);
#88=FACE_OUTER_BOUND('',#113,.T.);
#89=FACE_OUTER_BOUND('',#114,.T.);
#90=FACE_OUTER_BOUND('',#115,.T.);
#91=FACE_OUTER_BOUND('',#116,.T.);
#92=FACE_OUTER_BOUND('',#117,.T.);
#93=EDGE_LOOP('',(#198));
#94=EDGE_LOOP('',(#199));
#95=EDGE_LOOP('',(#200,#201,#202,#203));
#96=EDGE_LOOP('',(#204));
#97=EDGE_LOOP('',(#205));
#98=EDGE_LOOP('',(#206,#207,#208,#209));
#99=EDGE_LOOP('',(#210,#211,#212,#213));
#100=EDGE_LOOP('',(#214));
#101=EDGE_LOOP('',(#215));
#102=EDGE_LOOP('',(#216,#217,#218,#219));
#103=EDGE_LOOP('',(#220,#221,#222,#223));
#104=EDGE_LOOP('',(#224,#225,#226,#227));
#105=EDGE_LOOP('',(#228,#229,#230,#231));
#106=EDGE_LOOP('',(#232,#233,#234,#235));
#107=EDGE_LOOP('',(#236,#237,#238,#239));
#108=EDGE_LOOP('',(#240,#241,#242,#243));
#109=EDGE_LOOP('',(#244));
#110=EDGE_LOOP('',(#245));
#111=EDGE_LOOP('',(#246,#247,#248,#249));
#112=EDGE_LOOP('',(#250,#251,#252,#253));
#113=EDGE_LOOP('',(#254,#255,#256,#257));
#114=EDGE_LOOP('',(#258,#259,#260,#261));
#115=EDGE_LOOP('',(#262,#263,#264,#265));
#116=EDGE_LOOP('',(#266,#267,#268,#269));
#117=EDGE_LOOP('',(#270,#271,#272,#273));
#118=CIRCLE('',#315,427.);
#119=CIRCLE('',#316,425.);
#120=CIRCLE('',#318,427.722457315421);
#121=CIRCLE('',#320,429.725196493651);
#122=CIRCLE('',#323,429.725196493651);
#123=CIRCLE('',#324,427.727937424141);
#124=CIRCLE('',#326,433.750196493651);
#125=CIRCLE('',#328,437.98664158349);
#126=CIRCLE('',#330,438.000000000001);
#127=CIRCLE('',#332,433.750196493651);
#128=CIRCLE('',#334,433.750196493651);
#129=CIRCLE('',#336,438.000000000001);
#130=CIRCLE('',#338,438.000000000001);
#131=CIRCLE('',#340,433.73257557977);
#132=CIRCLE('',#342,431.750196493651);
#133=CIRCLE('',#344,436.000000000001);
#134=CIRCLE('',#346,436.000000000001);
#135=CIRCLE('',#348,431.750196493651);
#136=CIRCLE('',#350,431.750196493651);
#137=CIRCLE('',#352,436.000000000001);
#138=CIRCLE('',#354,436.000000000001);
#139=VERTEX_POINT('',#461);
#140=VERTEX_POINT('',#463);
#141=VERTEX_POINT('',#466);
#142=VERTEX_POINT('',#470);
#143=VERTEX_POINT('',#475);
#144=VERTEX_POINT('',#477);
#145=VERTEX_POINT('',#481);
#146=VERTEX_POINT('',#484);
#147=VERTEX_POINT('',#488);
#148=VERTEX_POINT('',#492);
#149=VERTEX_POINT('',#496);
#150=VERTEX_POINT('',#500);
#151=VERTEX_POINT('',#504);
#152=VERTEX_POINT('',#508);
#153=VERTEX_POINT('',#512);
#154=VERTEX_POINT('',#515);
#155=VERTEX_POINT('',#519);
#156=VERTEX_POINT('',#523);
#157=VERTEX_POINT('',#527);
#158=VERTEX_POINT('',#531);
#159=VERTEX_POINT('',#535);
#160=EDGE_CURVE('',#139,#139,#118,.T.);
#161=EDGE_CURVE('',#140,#140,#119,.T.);
#162=EDGE_CURVE('',#140,#141,#22,.T.);
#163=EDGE_CURVE('',#141,#141,#120,.T.);
#164=EDGE_CURVE('',#142,#142,#121,.T.);
#165=EDGE_CURVE('',#139,#142,#23,.T.);
#166=EDGE_CURVE('',#143,#143,#122,.T.);
#167=EDGE_CURVE('',#143,#144,#24,.T.);
#168=EDGE_CURVE('',#144,#144,#123,.T.);
#169=EDGE_CURVE('',#145,#145,#124,.T.);
#170=EDGE_CURVE('',#145,#146,#25,.T.);
#171=EDGE_CURVE('',#146,#146,#125,.T.);
#172=EDGE_CURVE('',#146,#147,#26,.T.);
#173=EDGE_CURVE('',#147,#147,#126,.T.);
#174=EDGE_CURVE('',#147,#148,#27,.T.);
#175=EDGE_CURVE('',#148,#148,#127,.T.);
#176=EDGE_CURVE('',#148,#149,#28,.T.);
#177=EDGE_CURVE('',#149,#149,#128,.T.);
#178=EDGE_CURVE('',#149,#150,#29,.T.);
#179=EDGE_CURVE('',#150,#150,#129,.T.);
#180=EDGE_CURVE('',#150,#151,#30,.T.);
#181=EDGE_CURVE('',#151,#151,#130,.T.);
#182=EDGE_CURVE('',#151,#152,#31,.T.);
#183=EDGE_CURVE('',#152,#152,#131,.T.);
#184=EDGE_CURVE('',#153,#153,#132,.T.);
#185=EDGE_CURVE('',#154,#154,#133,.T.);
#186=EDGE_CURVE('',#154,#153,#32,.T.);
#187=EDGE_CURVE('',#155,#155,#134,.T.);
#188=EDGE_CURVE('',#155,#154,#33,.T.);
#189=EDGE_CURVE('',#156,#156,#135,.T.);
#190=EDGE_CURVE('',#156,#155,#34,.T.);
#191=EDGE_CURVE('',#157,#157,#136,.T.);
#192=EDGE_CURVE('',#157,#156,#35,.T.);
#193=EDGE_CURVE('',#158,#158,#137,.T.);
#194=EDGE_CURVE('',#158,#157,#36,.T.);
#195=EDGE_CURVE('',#159,#159,#138,.T.);
#196=EDGE_CURVE('',#159,#158,#37,.T.);
#197=EDGE_CURVE('',#144,#159,#38,.T.);
#198=ORIENTED_EDGE('',*,*,#160,.T.);
#199=ORIENTED_EDGE('',*,*,#161,.F.);
#200=ORIENTED_EDGE('',*,*,#161,.T.);
#201=ORIENTED_EDGE('',*,*,#162,.T.);
#202=ORIENTED_EDGE('',*,*,#163,.F.);
#203=ORIENTED_EDGE('',*,*,#162,.F.);
#204=ORIENTED_EDGE('',*,*,#164,.F.);
#205=ORIENTED_EDGE('',*,*,#163,.T.);
#206=ORIENTED_EDGE('',*,*,#160,.F.);
#207=ORIENTED_EDGE('',*,*,#165,.T.);
#208=ORIENTED_EDGE('',*,*,#164,.T.);
#209=ORIENTED_EDGE('',*,*,#165,.F.);
#210=ORIENTED_EDGE('',*,*,#166,.T.);
#211=ORIENTED_EDGE('',*,*,#167,.T.);
#212=ORIENTED_EDGE('',*,*,#168,.F.);
#213=ORIENTED_EDGE('',*,*,#167,.F.);
#214=ORIENTED_EDGE('',*,*,#169,.T.);
#215=ORIENTED_EDGE('',*,*,#166,.F.);
#216=ORIENTED_EDGE('',*,*,#169,.F.);
#217=ORIENTED_EDGE('',*,*,#170,.T.);
#218=ORIENTED_EDGE('',*,*,#171,.T.);
#219=ORIENTED_EDGE('',*,*,#170,.F.);
#220=ORIENTED_EDGE('',*,*,#171,.F.);
#221=ORIENTED_EDGE('',*,*,#172,.T.);
#222=ORIENTED_EDGE('',*,*,#173,.T.);
#223=ORIENTED_EDGE('',*,*,#172,.F.);
#224=ORIENTED_EDGE('',*,*,#173,.F.);
#225=ORIENTED_EDGE('',*,*,#174,.T.);
#226=ORIENTED_EDGE('',*,*,#175,.T.);
#227=ORIENTED_EDGE('',*,*,#174,.F.);
#228=ORIENTED_EDGE('',*,*,#175,.F.);
#229=ORIENTED_EDGE('',*,*,#176,.T.);
#230=ORIENTED_EDGE('',*,*,#177,.T.);
#231=ORIENTED_EDGE('',*,*,#176,.F.);
#232=ORIENTED_EDGE('',*,*,#177,.F.);
#233=ORIENTED_EDGE('',*,*,#178,.T.);
#234=ORIENTED_EDGE('',*,*,#179,.T.);
#235=ORIENTED_EDGE('',*,*,#178,.F.);
#236=ORIENTED_EDGE('',*,*,#179,.F.);
#237=ORIENTED_EDGE('',*,*,#180,.T.);
#238=ORIENTED_EDGE('',*,*,#181,.T.);
#239=ORIENTED_EDGE('',*,*,#180,.F.);
#240=ORIENTED_EDGE('',*,*,#181,.F.);
#241=ORIENTED_EDGE('',*,*,#182,.T.);
#242=ORIENTED_EDGE('',*,*,#183,.T.);
#243=ORIENTED_EDGE('',*,*,#182,.F.);
#244=ORIENTED_EDGE('',*,*,#183,.F.);
#245=ORIENTED_EDGE('',*,*,#184,.T.);
#246=ORIENTED_EDGE('',*,*,#185,.T.);
#247=ORIENTED_EDGE('',*,*,#186,.T.);
#248=ORIENTED_EDGE('',*,*,#184,.F.);
#249=ORIENTED_EDGE('',*,*,#186,.F.);
#250=ORIENTED_EDGE('',*,*,#187,.T.);
#251=ORIENTED_EDGE('',*,*,#188,.T.);
#252=ORIENTED_EDGE('',*,*,#185,.F.);
#253=ORIENTED_EDGE('',*,*,#188,.F.);
#254=ORIENTED_EDGE('',*,*,#189,.T.);
#255=ORIENTED_EDGE('',*,*,#190,.T.);
#256=ORIENTED_EDGE('',*,*,#187,.F.);
#257=ORIENTED_EDGE('',*,*,#190,.F.);
#258=ORIENTED_EDGE('',*,*,#191,.T.);
#259=ORIENTED_EDGE('',*,*,#192,.T.);
#260=ORIENTED_EDGE('',*,*,#189,.F.);
#261=ORIENTED_EDGE('',*,*,#192,.F.);
#262=ORIENTED_EDGE('',*,*,#193,.T.);
#263=ORIENTED_EDGE('',*,*,#194,.T.);
#264=ORIENTED_EDGE('',*,*,#191,.F.);
#265=ORIENTED_EDGE('',*,*,#194,.F.);
#266=ORIENTED_EDGE('',*,*,#195,.T.);
#267=ORIENTED_EDGE('',*,*,#196,.T.);
#268=ORIENTED_EDGE('',*,*,#193,.F.);
#269=ORIENTED_EDGE('',*,*,#196,.F.);
#270=ORIENTED_EDGE('',*,*,#168,.T.);
#271=ORIENTED_EDGE('',*,*,#197,.T.);
#272=ORIENTED_EDGE('',*,*,#195,.F.);
#273=ORIENTED_EDGE('',*,*,#197,.F.);
#274=PLANE('',#314);
#275=PLANE('',#319);
#276=PLANE('',#325);
#277=PLANE('',#341);
#278=ADVANCED_FACE('',(#72,#68),#274,.T.);
#279=ADVANCED_FACE('',(#73),#56,.F.);
#280=ADVANCED_FACE('',(#74,#69),#275,.T.);
#281=ADVANCED_FACE('',(#75),#57,.T.);
#282=ADVANCED_FACE('',(#76),#58,.F.);
#283=ADVANCED_FACE('',(#77,#70),#276,.T.);
#284=ADVANCED_FACE('',(#78),#59,.T.);
#285=ADVANCED_FACE('',(#79),#60,.T.);
#286=ADVANCED_FACE('',(#80),#61,.T.);
#287=ADVANCED_FACE('',(#81),#13,.T.);
#288=ADVANCED_FACE('',(#82),#62,.T.);
#289=ADVANCED_FACE('',(#83),#14,.T.);
#290=ADVANCED_FACE('',(#84),#63,.T.);
#291=ADVANCED_FACE('',(#85,#71),#277,.T.);
#292=ADVANCED_FACE('',(#86),#64,.F.);
#293=ADVANCED_FACE('',(#87),#15,.F.);
#294=ADVANCED_FACE('',(#88),#65,.F.);
#295=ADVANCED_FACE('',(#89),#16,.F.);
#296=ADVANCED_FACE('',(#90),#66,.F.);
#297=ADVANCED_FACE('',(#91),#17,.F.);
#298=ADVANCED_FACE('',(#92),#67,.F.);
#299=CLOSED_SHELL('',(#278,#279,#280,#281));
#300=CLOSED_SHELL('',(#282,#283,#284,#285,#286,#287,#288,#289,#290,#291,
#292,#293,#294,#295,#296,#297,#298));
#301=DERIVED_UNIT_ELEMENT(#303,1.);
#302=DERIVED_UNIT_ELEMENT(#545,-3.);
#303=(
MASS_UNIT()
NAMED_UNIT(*)
SI_UNIT(.KILO.,.GRAM.)
);
#304=DERIVED_UNIT((#301,#302));
#305=MEASURE_REPRESENTATION_ITEM('density measure',
POSITIVE_RATIO_MEASURE(8080.),#304);
#306=PROPERTY_DEFINITION_REPRESENTATION(#311,#308);
#307=PROPERTY_DEFINITION_REPRESENTATION(#312,#309);
#308=REPRESENTATION('material name',(#310),#542);
#309=REPRESENTATION('density',(#305),#542);
#310=DESCRIPTIVE_REPRESENTATION_ITEM('304L Stainless Steel',
'304L Stainless Steel');
#311=PROPERTY_DEFINITION('material property','material name',#552);
#312=PROPERTY_DEFINITION('material property','density of part',#552);
#313=AXIS2_PLACEMENT_3D('placement',#459,#356,#357);
#314=AXIS2_PLACEMENT_3D('',#460,#358,#359);
#315=AXIS2_PLACEMENT_3D('',#462,#360,#361);
#316=AXIS2_PLACEMENT_3D('',#464,#362,#363);
#317=AXIS2_PLACEMENT_3D('',#465,#364,#365);
#318=AXIS2_PLACEMENT_3D('',#468,#367,#368);
#319=AXIS2_PLACEMENT_3D('',#469,#369,#370);
#320=AXIS2_PLACEMENT_3D('',#471,#371,#372);
#321=AXIS2_PLACEMENT_3D('',#472,#373,#374);
#322=AXIS2_PLACEMENT_3D('',#474,#376,#377);
#323=AXIS2_PLACEMENT_3D('',#476,#378,#379);
#324=AXIS2_PLACEMENT_3D('',#479,#381,#382);
#325=AXIS2_PLACEMENT_3D('',#480,#383,#384);
#326=AXIS2_PLACEMENT_3D('',#482,#385,#386);
#327=AXIS2_PLACEMENT_3D('',#483,#387,#388);
#328=AXIS2_PLACEMENT_3D('',#486,#390,#391);
#329=AXIS2_PLACEMENT_3D('',#487,#392,#393);
#330=AXIS2_PLACEMENT_3D('',#490,#395,#396);
#331=AXIS2_PLACEMENT_3D('',#491,#397,#398);
#332=AXIS2_PLACEMENT_3D('',#494,#400,#401);
#333=AXIS2_PLACEMENT_3D('',#495,#402,#403);
#334=AXIS2_PLACEMENT_3D('',#498,#405,#406);
#335=AXIS2_PLACEMENT_3D('',#499,#407,#408);
#336=AXIS2_PLACEMENT_3D('',#502,#410,#411);
#337=AXIS2_PLACEMENT_3D('',#503,#412,#413);
#338=AXIS2_PLACEMENT_3D('',#506,#415,#416);
#339=AXIS2_PLACEMENT_3D('',#507,#417,#418);
#340=AXIS2_PLACEMENT_3D('',#510,#420,#421);
#341=AXIS2_PLACEMENT_3D('',#511,#422,#423);
#342=AXIS2_PLACEMENT_3D('',#513,#424,#425);
#343=AXIS2_PLACEMENT_3D('',#514,#426,#427);
#344=AXIS2_PLACEMENT_3D('',#516,#428,#429);
#345=AXIS2_PLACEMENT_3D('',#518,#431,#432);
#346=AXIS2_PLACEMENT_3D('',#520,#433,#434);
#347=AXIS2_PLACEMENT_3D('',#522,#436,#437);
#348=AXIS2_PLACEMENT_3D('',#524,#438,#439);
#349=AXIS2_PLACEMENT_3D('',#526,#441,#442);
#350=AXIS2_PLACEMENT_3D('',#528,#443,#444);
#351=AXIS2_PLACEMENT_3D('',#530,#446,#447);
#352=AXIS2_PLACEMENT_3D('',#532,#448,#449);
#353=AXIS2_PLACEMENT_3D('',#534,#451,#452);
#354=AXIS2_PLACEMENT_3D('',#536,#453,#454);
#355=AXIS2_PLACEMENT_3D('',#538,#456,#457);
#356=DIRECTION('axis',(0.,0.,1.));
#357=DIRECTION('refdir',(1.,0.,0.));
#358=DIRECTION('center_axis',(0.,-1.,0.));
#359=DIRECTION('ref_axis',(0.,0.,-1.));
#360=DIRECTION('center_axis',(0.,-1.,0.));
#361=DIRECTION('ref_axis',(1.,0.,0.));
#362=DIRECTION('center_axis',(0.,-1.,0.));
#363=DIRECTION('ref_axis',(1.,0.,0.));
#364=DIRECTION('center_axis',(0.,1.,0.));
#365=DIRECTION('ref_axis',(1.,0.,0.));
#366=DIRECTION('',(-0.0522834956447083,0.998632282716301,-6.40288155895266E-18));
#367=DIRECTION('center_axis',(0.,-1.,0.));
#368=DIRECTION('ref_axis',(1.,0.,0.));
#369=DIRECTION('center_axis',(0.,1.,0.));
#370=DIRECTION('ref_axis',(0.,0.,1.));
#371=DIRECTION('center_axis',(0.,-1.,0.));
#372=DIRECTION('ref_axis',(1.,0.,0.));
#373=DIRECTION('center_axis',(0.,1.,0.));
#374=DIRECTION('ref_axis',(1.,0.,0.));
#375=DIRECTION('',(-0.0523359562429604,0.998629534754573,-6.40930612932573E-18));
#376=DIRECTION('center_axis',(0.,-1.,0.));
#377=DIRECTION('ref_axis',(1.,0.,0.));
#378=DIRECTION('center_axis',(0.,-1.,0.));
#379=DIRECTION('ref_axis',(1.,0.,0.));
#380=DIRECTION('',(0.998629534754573,0.052335956242969,1.2229684632712E-16));
#381=DIRECTION('center_axis',(0.,-1.,0.));
#382=DIRECTION('ref_axis',(1.,0.,0.));
#383=DIRECTION('center_axis',(0.,-1.,0.));
#384=DIRECTION('ref_axis',(0.,0.,-1.));
#385=DIRECTION('center_axis',(0.,-1.,0.));
#386=DIRECTION('ref_axis',(1.,0.,0.));
#387=DIRECTION('center_axis',(0.,1.,0.));
#388=DIRECTION('ref_axis',(1.,0.,0.));
#389=DIRECTION('',(-0.707367618427026,0.706845847693029,-8.66275489727144E-17));
#390=DIRECTION('center_axis',(0.,-1.,0.));
#391=DIRECTION('ref_axis',(1.,0.,0.));
#392=DIRECTION('center_axis',(0.,1.,0.));
#393=DIRECTION('ref_axis',(1.,0.,0.));
#394=DIRECTION('',(-0.00200268348062832,0.999997994627428,-2.45257991425676E-19));
#395=DIRECTION('center_axis',(0.,-1.,0.));
#396=DIRECTION('ref_axis',(1.,0.,0.));
#397=DIRECTION('center_axis',(0.,-1.,0.));
#398=DIRECTION('ref_axis',(1.,0.,0.));
#399=DIRECTION('',(0.70684584769303,0.707367618427025,8.65636504867867E-17));
#400=DIRECTION('center_axis',(0.,-1.,0.));
#401=DIRECTION('ref_axis',(1.,0.,0.));
#402=DIRECTION('center_axis',(0.,-1.,0.));
#403=DIRECTION('ref_axis',(1.,0.,0.));
#404=DIRECTION('',(0.,1.,0.));
#405=DIRECTION('center_axis',(0.,-1.,0.));
#406=DIRECTION('ref_axis',(1.,0.,0.));
#407=DIRECTION('center_axis',(0.,1.,0.));
#408=DIRECTION('ref_axis',(1.,0.,0.));
#409=DIRECTION('',(-0.707367618427044,0.706845847693011,-8.66275489727166E-17));
#410=DIRECTION('center_axis',(0.,-1.,0.));
#411=DIRECTION('ref_axis',(1.,0.,0.));
#412=DIRECTION('center_axis',(0.,-1.,0.));
#413=DIRECTION('ref_axis',(1.,0.,0.));
#414=DIRECTION('',(0.,1.,0.));
#415=DIRECTION('center_axis',(0.,-1.,0.));
#416=DIRECTION('ref_axis',(1.,0.,0.));
#417=DIRECTION('center_axis',(0.,-1.,0.));
#418=DIRECTION('ref_axis',(1.,0.,0.));
#419=DIRECTION('',(0.706845847693026,0.707367618427029,8.65636504867862E-17));
#420=DIRECTION('center_axis',(0.,-1.,0.));
#421=DIRECTION('ref_axis',(1.,0.,0.));
#422=DIRECTION('center_axis',(0.,1.,0.));
#423=DIRECTION('ref_axis',(0.,0.,1.));
#424=DIRECTION('center_axis',(0.,-1.,0.));
#425=DIRECTION('ref_axis',(1.,0.,0.));
#426=DIRECTION('center_axis',(0.,-1.,0.));
#427=DIRECTION('ref_axis',(1.,0.,0.));
#428=DIRECTION('center_axis',(0.,-1.,0.));
#429=DIRECTION('ref_axis',(1.,0.,0.));
#430=DIRECTION('',(0.705380899368597,0.708828460775912,8.63842460591434E-17));
#431=DIRECTION('center_axis',(0.,-1.,0.));
#432=DIRECTION('ref_axis',(1.,0.,0.));
#433=DIRECTION('center_axis',(0.,-1.,0.));
#434=DIRECTION('ref_axis',(1.,0.,0.));
#435=DIRECTION('',(0.,1.,0.));
#436=DIRECTION('center_axis',(0.,1.,0.));
#437=DIRECTION('ref_axis',(1.,0.,0.));
#438=DIRECTION('center_axis',(0.,-1.,0.));
#439=DIRECTION('ref_axis',(1.,0.,0.));
#440=DIRECTION('',(-0.707367618427032,0.706845847693024,-8.66275489727151E-17));
#441=DIRECTION('center_axis',(0.,-1.,0.));
#442=DIRECTION('ref_axis',(1.,0.,0.));
#443=DIRECTION('center_axis',(0.,-1.,0.));
#444=DIRECTION('ref_axis',(1.,0.,0.));
#445=DIRECTION('',(0.,1.,0.));
#446=DIRECTION('center_axis',(0.,-1.,0.));
#447=DIRECTION('ref_axis',(1.,0.,0.));
#448=DIRECTION('center_axis',(0.,-1.,0.));
#449=DIRECTION('ref_axis',(1.,0.,0.));
#450=DIRECTION('',(0.706845847692982,0.707367618427074,8.65636504867808E-17));
#451=DIRECTION('center_axis',(0.,-1.,0.));
#452=DIRECTION('ref_axis',(1.,0.,0.));
#453=DIRECTION('center_axis',(0.,-1.,0.));
#454=DIRECTION('ref_axis',(1.,0.,0.));
#455=DIRECTION('',(0.,1.,0.));
#456=DIRECTION('center_axis',(0.,1.,0.));
#457=DIRECTION('ref_axis',(1.,0.,0.));
#458=DIRECTION('',(-0.904601943373688,0.42625734485701,-1.10781787445506E-16));
#459=CARTESIAN_POINT('',(0.,0.,0.));
#460=CARTESIAN_POINT('Origin',(425.,-7.70788539378914E-30,0.));
#461=CARTESIAN_POINT('',(-427.,-4.44089209850063E-15,-5.2292418323592E-14));
#462=CARTESIAN_POINT('Origin',(0.,0.,0.));
#463=CARTESIAN_POINT('',(-425.,4.44089209850063E-15,-5.20474889637625E-14));
#464=CARTESIAN_POINT('Origin',(0.,0.,0.));
#465=CARTESIAN_POINT('Origin',(0.,25.9999233981233,0.));
#466=CARTESIAN_POINT('',(-427.722457315421,51.9998467962466,-5.23808938274771E-14));
#467=CARTESIAN_POINT('',(-426.361228657711,25.9999233981233,-5.22141913956198E-14));
#468=CARTESIAN_POINT('Origin',(0.,51.9998467962466,0.));
#469=CARTESIAN_POINT('Origin',(429.725196493651,51.9998467962466,0.));
#470=CARTESIAN_POINT('',(-429.725196493651,51.9998467962466,-5.26261586398917E-14));
#471=CARTESIAN_POINT('Origin',(0.,51.9998467962466,0.));
#472=CARTESIAN_POINT('Origin',(0.,25.9999233981233,0.));
#473=CARTESIAN_POINT('',(-428.362598246825,25.9999233981233,-5.24592884817418E-14));
#474=CARTESIAN_POINT('Origin',(0.,52.0521827524896,0.));
#475=CARTESIAN_POINT('',(-429.725196493651,51.9998467962466,-5.26261586398917E-14));
#476=CARTESIAN_POINT('Origin',(0.,51.9998467962466,0.));
#477=CARTESIAN_POINT('',(-427.727937424141,52.1045187087326,-5.23815649472374E-14));
#478=CARTESIAN_POINT('',(-428.726566958896,52.0521827524896,-5.25038617935645E-14));
#479=CARTESIAN_POINT('Origin',(0.,52.1045187087326,0.));
#480=CARTESIAN_POINT('Origin',(429.725196493651,51.9998467962466,0.));
#481=CARTESIAN_POINT('',(-433.750196493651,51.9998467962466,-5.31190789765485E-14));
#482=CARTESIAN_POINT('Origin',(0.,51.9998467962466,0.));
#483=CARTESIAN_POINT('Origin',(0.,54.1165068911709,0.));
#484=CARTESIAN_POINT('',(-437.98664158349,56.2331669860952,-5.3637893868452E-14));
#485=CARTESIAN_POINT('',(-435.86841903857,54.1165068911709,-5.33784864225002E-14));
#486=CARTESIAN_POINT('Origin',(0.,56.2331669860952,0.));
#487=CARTESIAN_POINT('Origin',(0.,59.5682895484378,0.));
#488=CARTESIAN_POINT('',(-438.000000000001,62.9034121107804,-5.36395298026542E-14));
#489=CARTESIAN_POINT('',(-437.993320791745,59.5682895484378,-5.36387118355531E-14));
#490=CARTESIAN_POINT('Origin',(0.,62.9034121107804,0.));
#491=CARTESIAN_POINT('Origin',(0.,65.0298823976762,0.));
#492=CARTESIAN_POINT('',(-433.750196493651,67.1563526845721,-5.31190789765485E-14));
#493=CARTESIAN_POINT('',(-435.875098246826,65.0298823976762,-5.33793043896014E-14));
#494=CARTESIAN_POINT('Origin',(0.,67.1563526845721,0.));
#495=CARTESIAN_POINT('Origin',(0.,70.487935775935,0.));
#496=CARTESIAN_POINT('',(-433.750196493651,73.8195188672979,-5.31190789765485E-14));
#497=CARTESIAN_POINT('',(-433.750196493651,70.487935775935,-5.31190789765485E-14));
#498=CARTESIAN_POINT('Origin',(0.,73.8195188672979,0.));
#499=CARTESIAN_POINT('Origin',(0.,75.9428532437392,0.));
#500=CARTESIAN_POINT('',(-438.000000000001,78.0661876201805,-5.36395298026542E-14));
#501=CARTESIAN_POINT('',(-435.875098246826,75.9428532437392,-5.33793043896014E-14));
#502=CARTESIAN_POINT('Origin',(0.,78.0661876201805,0.));
#503=CARTESIAN_POINT('Origin',(0.,81.3977299607827,0.));
#504=CARTESIAN_POINT('',(-438.000000000001,84.7292723013849,-5.36395298026542E-14));
#505=CARTESIAN_POINT('',(-438.000000000001,81.3977299607827,-5.36395298026542E-14));
#506=CARTESIAN_POINT('Origin',(0.,84.7292723013849,0.));
#507=CARTESIAN_POINT('Origin',(0.,86.8645595488157,0.));
#508=CARTESIAN_POINT('',(-433.73257557977,88.9998467962465,-5.31169210369702E-14));
#509=CARTESIAN_POINT('',(-435.866287789885,86.8645595488157,-5.33782254198122E-14));
#510=CARTESIAN_POINT('Origin',(0.,88.9998467962467,0.));
#511=CARTESIAN_POINT('Origin',(433.73257557977,88.9998467962467,0.));
#512=CARTESIAN_POINT('',(-431.750196493651,88.9998467962467,-5.28741496167191E-14));
#513=CARTESIAN_POINT('Origin',(0.,88.9998467962467,0.));
#514=CARTESIAN_POINT('Origin',(0.,86.8645595488158,0.));
#515=CARTESIAN_POINT('',(-436.000000000001,84.7292723013849,-5.33946004428248E-14));
#516=CARTESIAN_POINT('Origin',(0.,84.7292723013849,0.));
#517=CARTESIAN_POINT('',(-433.875098246826,86.8645595488158,-5.31343750297719E-14));
#518=CARTESIAN_POINT('Origin',(0.,81.3977299607827,0.));
#519=CARTESIAN_POINT('',(-436.000000000001,78.0661876201805,-5.33946004428247E-14));
#520=CARTESIAN_POINT('Origin',(0.,78.0661876201805,0.));
#521=CARTESIAN_POINT('',(-436.000000000001,81.3977299607827,-5.33946004428248E-14));
#522=CARTESIAN_POINT('Origin',(0.,75.9428532437392,0.));
#523=CARTESIAN_POINT('',(-431.750196493651,73.8195188672979,-5.2874149616719E-14));
#524=CARTESIAN_POINT('Origin',(0.,73.8195188672979,0.));
#525=CARTESIAN_POINT('',(-433.875098246826,75.9428532437392,-5.31343750297719E-14));
#526=CARTESIAN_POINT('Origin',(0.,70.487935775935,0.));
#527=CARTESIAN_POINT('',(-431.750196493651,67.1563526845721,-5.2874149616719E-14));
#528=CARTESIAN_POINT('Origin',(0.,67.1563526845721,0.));
#529=CARTESIAN_POINT('',(-431.750196493651,70.487935775935,-5.2874149616719E-14));
#530=CARTESIAN_POINT('Origin',(0.,65.0298823976759,0.));
#531=CARTESIAN_POINT('',(-436.000000000001,62.9034121107798,-5.33946004428248E-14));
#532=CARTESIAN_POINT('Origin',(0.,62.9034121107798,0.));
#533=CARTESIAN_POINT('',(-433.875098246826,65.0298823976759,-5.31343750297719E-14));
#534=CARTESIAN_POINT('Origin',(0.,59.4529040870968,0.));
#535=CARTESIAN_POINT('',(-436.000000000001,56.0023960634139,-5.33946004428247E-14));
#536=CARTESIAN_POINT('Origin',(0.,56.0023960634139,0.));
#537=CARTESIAN_POINT('',(-436.000000000001,59.4529040870968,-5.33946004428248E-14));
#538=CARTESIAN_POINT('Origin',(0.,54.0534573860732,0.));
#539=CARTESIAN_POINT('',(-431.863968712071,54.0534573860732,-5.28880826950311E-14));
#540=UNCERTAINTY_MEASURE_WITH_UNIT(LENGTH_MEASURE(0.01),#544,
'DISTANCE_ACCURACY_VALUE',
'Maximum model space distance between geometric entities at asserted c
onnectivities');
#541=UNCERTAINTY_MEASURE_WITH_UNIT(LENGTH_MEASURE(0.01),#544,
'DISTANCE_ACCURACY_VALUE',
'Maximum model space distance between geometric entities at asserted c
onnectivities');
#542=(
GEOMETRIC_REPRESENTATION_CONTEXT(3)
GLOBAL_UNCERTAINTY_ASSIGNED_CONTEXT((#540))
GLOBAL_UNIT_ASSIGNED_CONTEXT((#544,#546,#547))
REPRESENTATION_CONTEXT('','3D')
);
#543=(
GEOMETRIC_REPRESENTATION_CONTEXT(3)
GLOBAL_UNCERTAINTY_ASSIGNED_CONTEXT((#541))
GLOBAL_UNIT_ASSIGNED_CONTEXT((#544,#546,#547))
REPRESENTATION_CONTEXT('','3D')
);
#544=(
LENGTH_UNIT()
NAMED_UNIT(*)
SI_UNIT(.MILLI.,.METRE.)
);
#545=(
LENGTH_UNIT()
NAMED_UNIT(*)
SI_UNIT($,.METRE.)
);
#546=(
NAMED_UNIT(*)
PLANE_ANGLE_UNIT()
SI_UNIT($,.RADIAN.)
);
#547=(
NAMED_UNIT(*)
SI_UNIT($,.STERADIAN.)
SOLID_ANGLE_UNIT()
);
#548=SHAPE_DEFINITION_REPRESENTATION(#549,#550);
#549=PRODUCT_DEFINITION_SHAPE('',$,#552);
#550=SHAPE_REPRESENTATION('',(#313),#542);
#551=PRODUCT_DEFINITION_CONTEXT('part definition',#556,'design');
#552=PRODUCT_DEFINITION('BFM Spigot 850mm','BFM Spigot 850mm v2',#553,#551);
#553=PRODUCT_DEFINITION_FORMATION('',$,#558);
#554=PRODUCT_RELATED_PRODUCT_CATEGORY('BFM Spigot 850mm v2',
'BFM Spigot 850mm v2',(#558));
#555=APPLICATION_PROTOCOL_DEFINITION('international standard',
'automotive_design',2009,#556);
#556=APPLICATION_CONTEXT(
'Core Data for Automotive Mechanical Design Process');
#557=PRODUCT_CONTEXT('part definition',#556,'mechanical');
#558=PRODUCT('BFM Spigot 850mm','BFM Spigot 850mm v2',$,(#557));
#559=PRESENTATION_STYLE_ASSIGNMENT((#560));
#560=SURFACE_STYLE_USAGE(.BOTH.,#561);
#561=SURFACE_SIDE_STYLE('',(#562));
#562=SURFACE_STYLE_FILL_AREA(#563);
#563=FILL_AREA_STYLE('Steel - Satin',(#564));
#564=FILL_AREA_STYLE_COLOUR('Steel - Satin',#565);
#565=COLOUR_RGB('Steel - Satin',0.627450980392157,0.627450980392157,0.627450980392157);
ENDSEC;
END-ISO-10303-21;
